Oops, an error
Loading. Please wait.

No Vuelva chords

by Rescate
11 views 1 this week
no commentswrite comment
1 2 3 4 5
3 more votes to show rating
add to favorites
×
Save as Personal and add changes to this tab that will be seen only by you. Learn more ›
×
You can save this tab as Personal to edit and correct it or add notes. All changes will be seen only by you. Learn more »
launch autoscroll
font size
0
reset
transpose
0
reset
display chords
guitar tuner
edit
Autoscroll
slow
fast
+/-
esc
set tempo
stop
Strumming
There is no strumming pattern for this song yet. and get +5 IQ
Bueno les dejo no vuelvas abajo están los acordes si los necesitan
esta se toca con dos guitarras pero si solo es una el intro se
toca una ves y se toca la canción con los acordes, esta fácil.

(
                          INTRO
e-------------------------------------------------------------
B-3s4-4-4-2-2-2--------------------3s4-4-4-2-2-2--------------
G---------------1-1-1-3-3-3----------------------1-1-1-3-3-3--
D-------------------------------------------------------------
A-------------------------------------------------------------
E-------------------------------------------------------------
                        D-C-G-A  X2

   INTRO
   Era una noche parecida a la que solíamos pasar.

   INTRO
   Tu cuerpo tiene mucha prisa, no será una noche más.

   INTRO
   Ahora el carro está en la pista,
   y ese ruido no te deja escuchar.

   INTRO
   Él te advierte, "No juegues con fuego,
   porque te puedes quemar."

   G            E
   Y esta noche vas a salir.

   G            E
   Y esta noche vas a vivir locura.

   INTRO
   Ahora el carro esta en la pista, ¿quién lo va a parar?

                            RIFF
                          E-D-A-B

   RIFF
   Una vez, nunca más, te diré, me dirás,

   DD
   "No vuelvas!"

   INTRO
   El sol desnuda las heridas que la noche no me deja ver.

   INTRO
   Ahora el fuego esta en la cama y no pararás de arder.

   G            E
   Y esta noche vas a vivir.

   G            E
   Y esta noche vas a servir locura.

   INTRO
   Ahora el fuego quema y está dentro de tu ser.

   RIFF
   Una vez, nunca más, te diré, me dirás,

   RIFF
   Una vez, te dire, nunca mas, me dirás,

   RIFF X2
   No vuelvas, no vuelvas por donde viniste.

   RIFF X2
   No vuelvas, no vuelvas al lugar de donde, de donde saliste.

   RIFF X2
   No vuelvas, no no.

   RIFF X2
   No vuelvas, no no.

   RIFF X2
   No vuelvas, más.


                          FINAL (SI ES EN VIVO)

                           D   C   G   A

                   (SI NO SOLO SE DISMINUELLE EL SONIDO)
e------------------------------------------------------------
B---3s4-4-4-2-2-2-------------3s4----------------------------
G-----------------1-1-1-3-3-3--------------------------------
D------------------------------------------------------------
A------------------------------------------------------------
E------------------------------------------------------------


                             ACORDES

    6   5   4   3   2    1
    E   A   D   G   B    E
D   5   5   7   7   7    5
C   3   3   5   5   5    3
G   3   5   5   4   3    3
A   5   7   7   8   5    5
E   7   7   9   9   9    7
Suggest correction
Creating personal tab
Creating personal tab
You can edit any tab online and save it as your Personal.

You can edit, replace or remove any tab part or add personal notes – all changes will be seen only by you.

Personal tabs can be accessed anytime from any device, even offline.
Learn more »
Give kudos to tab author, rate the tab!
1 2 3 4 5
comments
print report bad tab
guest
Wanna post a correction for this tab? Suggest correction