Oops, an error
Loading. Please wait.

Tu Coche tab

version 2
version 2

Whole song

by Rescate
38 views 1 this week
no commentswrite comment
1 2 3 4 5
3 more votes to show rating
add to favorites
×
Save as Personal and add changes to this tab that will be seen only by you. Learn more ›
×
You can save this tab as Personal to edit and correct it or add notes. All changes will be seen only by you. Learn more »
launch autoscroll
font size
0
reset
how to read this tab
guitar tuner
edit
Autoscroll
slow
fast
+/-
esc
set tempo
stop
Era de noche, cuando te vi...
Am
era de noche, cuando te vi,
Dm             Am   Dm   F            E
ohhh, era de noche, ohhh   cuando te vi, por alli

AQUI EN ESTE "E" VA UNA SIMPLE MELODIA!!!

e -----0--------
B ---0----------
G -1------------
D --------------
A --------------
E --------------

Am
Era tu coche cuando te vi
era tu coche, y lo segui,

Dm
ohhh,
e ---------------------------
B ---1--5--5s2---------------
G -2-------------------------
D ---------------------------
A ---------------------------
E ---------------------------

Am
era tu coche,

Dm
ohhh
e ---------------------------
B ---1--3--------------------
G -2-------4s5(4)------------
D ---------------------------
A ---------------------------
E ---------------------------

F          E
y lo segui por alli


Coro:

G#        Am  G#        C G
Todo tu amor, no la mitad,
G#        Am   C       G#       Am
todo tu amor, no la mezquina mitad

e ---------------3-----------
B ----------1----------------
G -2-2---2----2-2------------
D ---------------------------
A ---------------------------
E ---------------------------

Verso:


Era de noche cuando te vi...
Am
era la noche, para morir,

e --5--5--3------------------
B ----------5--3s2--3s1------
G ---------------------------
D ---------------------------
A ---------------------------
E ---------------------------

Dm
ohhh,
e ---------------------------
B ---1--3--------------------
G -2-------------------------
D ---------------------------
A ---------------------------
E ---------------------------
Am
era un derroche
e ----5--3-------------------
B -5-------5--3--1--3--5-----
G -----------------------2--2
D ---------------------------
A ---------------------------
E ---------------------------

Dm
ohhh,
e ---5---5---5---5-----------
B -5---5---5---5-------------
G ---------------------------
D ---------------------------
A ---------------------------
E ---------------------------

 F         E
verte morir, no por mi

Coro:

G#        Am  G#        C  G
Todo tu amor, no la mitad
G#        Am  C        G#       Am
todo tu amor, no la mezquina mitad

Puente:

s=RESBALAR A:

e -3s8--12-1O-8----8s6---5------
B --------------10-----8---1-3-3
G ------------------------------
D ------------------------------
A ------------------------------
E ------------------------------

e ---5-7-8-5---5-7-8-15---17-15------------
B -5---------5------------------15-13-15---
G -----------------------------------------
D -----------------------------------------
A -----------------------------------------
E -----------------------------------------

F           C
  Un paseo mas que suficiente,
G            Dm                   F
  para darme cuenta que estar con vos
           Am            G
me resulta tan insuficiente
G...
porque me das algo cuando yo pretendo...

Coro:

G#                 Am   G#        C G
Todo todo todo tu amor, no la mitad
G#                 Am    C       G#*
todo todo todo tu amor, no la mezquina

EN EL G#* VA ESTE SOLO

e -3s8--12-1O-8----8s6----------
B --------------10-----8--------
G ------------------------------
D ------------------------------
A ------------------------------
E ------------------------------

 Am          Dm
mitad de tu amor
C       G#          Am
no la mitad de tu amor,
C         G#       Am
no la mezquina mitad

e -6s7-5-7-8-7-5-----5----------
B ---------------7s5------------
G ------------------------------
D ------------------------------
A ------------------------------
E ------------------------------

e ------------------------------
B --7--5--3-----3----3----3-----
G -----------5-----5---5-----5--
D ------------------------------
A ------------------------------
E ------------------------------

e ------------------------------
B --------------3---3---3-------
G --3s5-5-5-3-5---5---5---5-----
D ------------------------------
A ------------------------------
E ------------------------------
E ------------------------------

e ------------------------------
B --------------3---3---3-------
G --3s5-5-5-3-5---5---5---5-----
D ------------------------------
A ------------------------------
E ------------------------------
E ------------------------------

e --------------3---3---3-------
B --3---5-3---------------------
G ----5-----5-3-5-3-------------
D ------------------------------
A ------------------------------
E ------------------------------

Era de noche, era tu coche, cuando te vi?
Suggest correction
Creating personal tab
Creating personal tab
You can edit any tab online and save it as your Personal.

You can edit, replace or remove any tab part or add personal notes – all changes will be seen only by you.

Personal tabs can be accessed anytime from any device, even offline.
Learn more »
Give kudos to tab author, rate the tab!
1 2 3 4 5
comments
print report bad tab
guest
Wanna post a correction for this tab? Suggest correction