Oops, an error
Loading. Please wait.

I Am Your Sugar Rush bass

266 views 1 this week
no commentswrite comment
1 2 3 4 5
3 more votes to show rating
add to favorites
×
Save as Personal and add changes to this tab that will be seen only by you. Learn more ›
×
You can save this tab as Personal to edit and correct it or add notes. All changes will be seen only by you. Learn more »
launch autoscroll
font size
0
reset
guitar tuner
edit
Autoscroll
slow
fast
+/-
esc
set tempo
stop
Artist: Rescue The Astronauts
Bassist: Thom Hegarty
Song: I Am Your Sugar Rush
Album: Your Scissors/My Seatbelt EP
Tabbed By: Lewis [lewis_mason21@hotmail.com]
Website: http://www.rescuetheastronauts.co.uk/index.php

Awesome song by an awesome band.  It's a shame they split up so early on...  This is the 
tab I've done, and I'm pretty sure it's all correct.  Comments and ratings appreciated!

Key:
\: Slide Down
~: Let Ring

[Tuning: Standard - E,A,D,G]

Xylophone Intro:
G|---------------REST---------------|
D|---------------REST---------------|
A|---------------REST---------------|
E|---------------REST---------------|


Intro: [NOTE: All notes are played in the same rhythm and consecutively,
the spaces are just so it doesn't look messy]
G|------------------------------------------|
D|------------------------------------------|
A|------------------------------------------|
E|-5~555-5555-5555-5555-5555-5555-5555-5555-|

G|--------------------------------------------|
D|--------------------------------------------|
A|--------------------------------------------|
E|-2~222-2222-2222-2\0~--5~555-5555-4444-2222-|

G|------------------------------------------|
D|------------------------------------------|
A|------------------------------------------|
E|-5~555-5555-5555-5555-5555-5555-5555-5555-|

G|--------------------------------------------|
D|--------------------------------------------|
A|--------------------------------------------|
E|-2~222-2222-2222-2\0~--5~555-5555-4444-2222-|

Verse One:
("Last year" ... "But I truly hope that next year...")
G|------------------------|
D|------------------------|
A|------------------------|
E|-5-55--5-55--2-22--2-22-|

G|-----------------------------------|
D|-----------------------------------|
A|-----------------------------------|
E|-5555555555555555-4444444444444444-|

G|------------------------|
D|------------------------|
A|------------------------|
E|-5-55--5-55--2-22--2-22-|

G|-----------------------------------|
D|-----------------------------------|
A|-----------------------------------|
E|-5555555555555555-4444444444444444-|

Chorus:
("I am your sugar rush" ... "Light up, light up")
G|------------------|
D|------------------|
A|------------------|
E|-5555555~-777-777-|

G|------------------|
D|------------------|
A|------------------|
E|-5555555~-777-777-|

G|------------------|
D|------------------|
A|------------------|
E|-5555555~-777-999-|

G|------------------|
D|------------------|
A|------------------|
E|-5555555~-777-999-|

Post-Chorus One: [Played pretty fast...]
G|---------|
D|---------|
A|---------|
E|-222-222-|

Verse Two, Part One:
("I feel like I'm chasing an ambulance" ... "You're such a keeper but no one knows")
G|------------------------|
D|------------------------|
A|------------------------|
E|-5-55--5-55--2-22--2-22-|

G|-----------------------------------|
D|-----------------------------------|
A|-----------------------------------|
E|-5555555555555555-4444444444444444-|

Verse Two, Part Two: [It changes a bit...  Once again, spaces are for neatness]
("Your voice, my scream" ... "I truly hope that next year")
G|-------------------------------------|
D|-------------------------------------|
A|-------------------------------------|
E|-5-555-5555-5555-5555--2-222-2222-2~-|

G|-------------------------------------|
D|-------------------------------------|
A|-------------------------------------|
E|-5~555555555555555-5~555555555555555-|

G|-----------------------------------|
D|-----------------------------------|
A|-----------------------------------|
E|-5555555555555555-4444444444444444-|

Chorus [x2]:
("I am your sugar rush" ... "Light up, light up")
G|------------------|
D|------------------|
A|------------------|
E|-5555555~-777-777-|

G|------------------|
D|------------------|
A|------------------|
E|-5555555~-777-777-|

G|------------------|
D|------------------|
A|------------------|
E|-5555555~-777-999-|

G|------------------|
D|------------------|
A|------------------|
E|-5555555~-777-999-|

Interlude:
("We're nearly there" ... "Case sensitive")
G|----------------------------------------------|
D|----------------------------------------------|
A|----------------------------------------------|
E|-5-5~--5-5~--2-2~--2-2~--5-5~--5-5~--2-2~--2~-|

Breakdown: [NOTE: 10's, not 1's and 0s]
G|-----------------------------------------------------|
D|-----------------------------------------------------|
A|-----------------------------------------------------|
E|-444444444444-555555555555-777777777777-999999999999-|

G|-----------------------------------------------------|
D|-----------------------------------------------------|
A|-----------------------------------------------------|
E|-444444444444-555555555555-777777777777-777777777777-|

Chorus [x2]:
("I am your sugar rush" ... "Light up, light up")
G|------------------|
D|------------------|
A|------------------|
E|-5555555~-777-777-|

G|------------------|
D|------------------|
A|------------------|
E|-5555555~-777-777-|

G|------------------|
D|------------------|
A|------------------|
E|-5555555~-777-999-|

G|------------------|
D|------------------|
A|------------------|
E|-5555555~-777-999-|

Post-Chorus Two/Outro: [Played fast also...]
G|--------------|
D|--------------|
A|--------------|
E|-222-222-0-0~-|
Suggest correction
Creating personal tab
Creating personal tab
You can edit any tab online and save it as your Personal.

You can edit, replace or remove any tab part or add personal notes – all changes will be seen only by you.

Personal tabs can be accessed anytime from any device, even offline.
Learn more »
Give kudos to tab author, rate the tab!
1 2 3 4 5
comments
print report bad tab
guest
You may want to rate the tab now too:
select rating
Wanna post a correction for this tab? Suggest correction