Oops, an error
Loading. Please wait.

Happy Without Me tab

702 views 3 this week
3 commentsread comments
1 2 3 4 5
1 last vote to show rating
add to favorites
×
Save as Personal and add changes to this tab that will be seen only by you. Learn more ›
×
You can save this tab as Personal to edit and correct it or add notes. All changes will be seen only by you. Learn more »
launch autoscroll
font size
0
reset
how to read this tab
guitar tuner
edit
Autoscroll
slow
fast
+/-
esc
set tempo
stop
Author
Difficulty
Ok I seen RH in concert with Flyleaf and Sick Puppies and they were the Opening band. 
played this song and I went home and listened to it on myspace and figured out how to play it.


Into/Verse

e|----3----3---2h3p2--3---5---3--2h3p2----3---3--2h3-----------3----2-----|
b|-----3----3---------2----3---3-----------3---3-----0---------3----3-----|
g|-------0------------0-----2-----------0---0------------------0----2-----|
d|-0------------------------------------2----------------------0----0-----|
a|-2------------------------------------3----------------------2----------|
E|-3-----------------------------------------------------3-3---3----------|(x2)


Chorus
e|-3---------2-------3---------2--------3-----2------3----3---2-----------|
b|-3---------3-------3---------3--------3-----3------3----3---3-----------|
g|-0---------2-------0---------2--------0-----2------0----0---2-----------|
d|-0---------0-------2---------0--------0-----0------2----0---0-----------|
a|-2-----------------3------------------2------------3----2---------------|
E|-3------------------------------------3-----------------3---------------|


Bridge

e|---2--3------------3--2---3--------------------------------------------|
b|---3--3------------3--3---3--------------------------------------------|
g|---4--0--(x4)------0--2---0--------------------------------------------|
d|---4--2------------2--0---2--------------------------------------------|
a|---2--3------------3------3--------------------------------------------|
E|-----------------------------------------------------------------------|


Then Repeat chorus again.

same thing for the "oohh ohhh oohh" part.

Thanks,
    Aaron                    www.residenthero.net

            
            
Suggest correction
Creating personal tab
Creating personal tab
You can edit any tab online and save it as your Personal.

You can edit, replace or remove any tab part or add personal notes – all changes will be seen only by you.

Personal tabs can be accessed anytime from any device, even offline.
Learn more »
Give kudos to tab author, rate the tab!
1 2 3 4 5
comments
print report bad tab
3 comments total.
-1 reply
Adawg#12 31 Aug 19, 2007 01:35 PM

Keep it up! You Rock!

-1 reply
krista51707 10 Aug 19, 2007 03:12 PM

Thanks for the awesome tabs.Finally someone put RH on here.

-1 reply
Adawg#12 31 Dec 23, 2007 06:15 AM

ok on
e|----3----3---2h3p2--2---5---3--2h3p2----3---3--2h3-----------3----2-----|
b|-----3----3---------3----3---3-----------
3---3-----0---------3----3-----|
g|-------0------------2-----2-----------0---0------------------0----2-----|
d|-0-----
-------------0-----------------2----------------------0----0-----|
a|-2------------------------------------3-----------
-----------2----------|
E|-3-----------------------------------------------------3-3---3----------|(x2)


thats how
it should be...yes i did change it

guest
You may want to rate the tab now too:
select rating
Wanna post a correction for this tab? Suggest correction