Oops, an error
Loading. Please wait.

No Te Calles tab

28 views 1 this week
no commentswrite comment
1 2 3 4 5
3 more votes to show rating
add to favorites
×
Save as Personal and add changes to this tab that will be seen only by you. Learn more ›
×
You can save this tab as Personal to edit and correct it or add notes. All changes will be seen only by you. Learn more »
launch autoscroll
font size
0
reset
how to read this tab
guitar tuner
edit
Autoscroll
slow
fast
+/-
esc
set tempo
stop
Toda la canción se acompaña con las notas de la Intro

Intro: LAm - FA - SOL - MI
E-------------------------------------------------------------||
B---17-15(^)-------17-15(^)----17-15(^)--------------------||
G-----------17-14----------17----------17-14--14--------------|| X2
D-----------------------------------------------17-15---------||
A----------------------------------------------------17-15-14-||
E-------------------------------------------------------------||

No te calles
Que yo quiero oír tu voz
No te calles
Que yo quiero oír tu voz

No te calles
Que tu voz se haga un grito
Y que ese grito
Se esparza al infinito
Porque el silencio
Es el peor enemigo
Del hombre de los pueblos
Que se hallan oprimidos

No te pares
Yo camino junto a vos
No te pares
Yo camino junto a vos

No te pares
Tenemos un camino
Toma mi mano hermano
Recórrelo conmigo
Millones de personas
Sabrán de este camino
Si el pueblo está unido
Ya no será oprimido

No te canses
Tu dolor es mi dolor
No te canses
Tu dolor es mi dolor

No te canses
Que Dios está contigo
Mantente siempre firme
Y tú serás testigo
Verás que el opresor
Recibe su castigo
Si el pueblo está unido
Ya no será oprimido

SOLO 1
E---------------------------------------------------------------||
B-----17-15(^)-------17-15(^)----17-15(^)--------------------||
G-------------17-14----------17----------17-14--14--------------||
D-------------------------------------------------17-15---------||
A------------------------------------------------------17-15-14-||
E---------------------------------------------------------------||

E---------------------------------------------------------------||
B--7-15(^)-------17-15(^)----17-15(^)---------------15-------||
G---------17-14----------17----------17-14--14-17-17--14-12-14--||
D---------------------------------------------------------------||
A---------------------------------------------------------------||
E---------------------------------------------------------------||

No te canses
Que Dios está contigo
Mantente siempre firme
Y tú serás testigo
Verás que el opresor
Recibe su castigo
Si el pueblo está unido
Ya no será oprimido

SOLO 2
E------------------------------------------------------------------||
B---17-15(^)-------17-15(^)------17-15(^)-----------------------||
G-----------17-14----------17-17---------17-14--14-----------------||
D-------------------------------------------------17-15------------||
A-------------------------------------------------------17-15-14---||
E------------------------------------------------------------------||

E------------------------------------------------------------------||
B-17-15(^)-------17-15(^)----17-15(^)-------------------15------||
G---------17-14----------17----------17-14--14-14-14-17----12-14---||
D------------------------------------------------------------------||
A------------------------------------------------------------------||
E------------------------------------------------------------------||

E------------------------------------------------------------------||
B------13----------------------------------------------------------||
G-14-17--14(^)-12(^)-14-12--------12--------------9--9--9--------||
D-------------------------14-12(^)--14-12(^)-12-10-10-10-10-9----||
A------------------------------------------------------------10-12-||
E------------------------------------------------------------------||

E------------------------------------------------12-15-15-15-15~15~17-||
B------------------------------13-15-13-15~-13-15---------------------||
G-----------------------12-10~----------------------------------------||
D---------10-12-10-12~14----------------------------------------------||
A-12-10-12------------------------------------------------------------||
E---------------------------------------------------------------------||

No te calles
Que yo quiero oír tu voz
No te pares
Yo camino junto a vos
No te canses
Tu dolor es mi dolor
No te calles
Que yo quiero oír tu voz
No te pares
Yo camino junto a vos
No te canses
Tu dolor es mi dolor

Outro
E-10-8-10-8-10-8-10-8-------------------8-10-10~12-15-12-15-12-15-15~17-17|
B--------------------10~-8-8~10-10--8-10----------------------------------|
G-------------------------------------------------------------------------|
D-------------------------------------------------------------------------|
A-------------------------------------------------------------------------|
E-------------------------------------------------------------------------|

E-15--15--15--15--15--15--15--15--15--10-8-10-8-10-8-10-8-||
B---17--17--17--17--17--17--17--17--17--------------------||
G---------------------------------------------------------||
D---------------------------------------------------------||
A---------------------------------------------------------||
E---------------------------------------------------------||

E------------------------------------------------------------||
B-10~-8-8~10-10--12-13-12--12-13-12--------------------------||
G----------------------------------14-12--12-14-12--12-12~14-||
D---------------------------------------14--------14---------||
A------------------------------------------------------------||
E------------------------------------------------------------||

E----------------------------------------------------------------||
B------13-13-----------------------------------------------------||
G-12-14-----14-12-14-12-14-14~-14-12-14--14-12--12---12-12-12-14~||  X2
D---------------------------------------------14--14-------------||
A----------------------------------------------------------------||
E----------------------------------------------------------------||

Por ser esta mi primera tablatura espero la califiquen.
Por cualquier cosa mi correo es bryan_mesen@
Espero que la disfruten con un buen Hierbo.

            
            
Suggest correction
Creating personal tab
Creating personal tab
You can edit any tab online and save it as your Personal.

You can edit, replace or remove any tab part or add personal notes – all changes will be seen only by you.

Personal tabs can be accessed anytime from any device, even offline.
Learn more »
Give kudos to tab author, rate the tab!
1 2 3 4 5
comments
print report bad tab
guest
Wanna post a correction for this tab? Suggest correction