Oops, an error
Loading. Please wait.

Por Cultivar Marihuana tab

592 views 6 this week
no commentswrite comment
1 2 3 4 5
3 more votes to show rating
add to favorites
×
Save as Personal and add changes to this tab that will be seen only by you. Learn more ›
×
You can save this tab as Personal to edit and correct it or add notes. All changes will be seen only by you. Learn more »
launch autoscroll
font size
0
reset
how to read this tab
guitar tuner
edit
Autoscroll
slow
fast
+/-
esc
set tempo
stop
escuchen el tema y se les va a hacer fácil el tema

1ra guitarra: Gm F (con onda reggae) X4

2da guitarra: Intro

Intro:
e|----------------------------------------------------------------
B|----------------------------------------------------------------
G|-12-10-12----12-12-14-12-14----14-14-15-14-15----15-15-17-15-17-
D|----------------------------------------------------------------
A|----------------------------------------------------------------
E|----------------------------------------------------------------

--------------------------|
-18----------18-----------|
----17^~-17^----17^-17-15-|
--------------------------|
--------------------------|
--------------------------|

Gm                  F
La hipocresia otra vez gano
   Gm                         F
La mentira sigue viva y la verdad murio
  Gm                      F
Y digo todo esto y nos es solo por hablar
  Gm                           F
Sino por esta historia que te voy a contar.
La de un hombre bueno que a nadie lastimo
Que todas las mañanas se va a trabajar
Para a su familia poder alimentar
Vestir a sus hijos poderlos educar
Comprar los remedios para su mama
Una mujer anciana que enferma esta.

Y hoy preso esta por cultivar marihuana
Y hoy preso esta por cultivar marihuanaa
( preso estaa) por cultivar marihuana
( preso estaa) por cultivar marihuana.

El desde chiquito siempre tuvo asma
Compro remedios caros que no lo curaban
Un dia en una fiesta conocioun rastaman
Le dijo: Marihuana te puede ayudar.
Le regalo semilla le enseño a sembrar
De la primer cosecha el empezo a fumar
El ataque de asma ya no vino mas
Por eso el sus plantas siempre conservaba
Y con mucho cariño siempre las regaba.

Y hoy preso esta por cultivar marihuana
Y hoy preso esta por cultivar marihuanaa
( preso estaa) por cultivar marihuana
( preso estaa) por cultivar marihuana.

Gm F X4

Primer solo:

e|----------------------------------------------------------------
B|----------------------------------------------------------------
G|-12-10-12----12-12-14-12-14----14-14-15-14-15----15-15-17-15-17-
D|----------------------------------------------------------------
A|----------------------------------------------------------------
E|----------------------------------------------------------------

--------------------------|
-18----------18-----------|
----17^~-17^----17^-17-15-|
--------------------------|
--------------------------|
--------------------------|

Una tarde como todas llego de trabajar
Beso a su esposa sus hijos su mama
Se fue al jardin se puso a regar
Nunca imagino lo que iva a pasar.
Cuatro patrulleros llegaron al lugar
Armados para la guerra y con orden judicial
Derrivaron la puerta destruyeron el lugar
Esposaron sus muñecas no lo dejaron ni hablar
Delante de su esposa de sus hijos y de su mama.

Y hoy preso esta por cultivar marihuana
Y hoy preso esta por cultivar marihuanaa
( preso estaa) por cultivar marihuana
( preso estaa) por cultivar marihuana.

Gm F X8

Segundo solo:

e|----------------------------------------------------------------
B|----------------------------------------------------------------
G|-12-10-12----12-12-14-12-14----14-14-15-14-15----15-15-17-15-17-
D|----------------------------------------------------------------
A|----------------------------------------------------------------
E|----------------------------------------------------------------

--------------------------------------------------------------
-18----------18------------------18^-18^-18-16-15-16-15-------
----17^~-17^----17^-17-15~-15-15------------------------17-15-
--------------------------------------------------------------
--------------------------------------------------------------
--------------------------------------------------------------

-----------------------------------------------------------------
-15-16-15--------------------------------------------------------
----------17-15-14---14-15-14-12-14-11---11-12-11----11-12-15-19-
--------------------------------------------------14-------------
-----------------------------------------------------------------
-----------------------------------------------------------------

-------18^-18-17-15-13-10-13^-13-10~-18-18-18^-18-17-15v-14-17-20-21-|
-15-15---------------------------------------------------------------|
---------------------------------------------------------------------|
---------------------------------------------------------------------|
---------------------------------------------------------------------|
---------------------------------------------------------------------|


Su madre murio sin poderlo visitar
Su esposa angustiada no para de llorar
Cada vez que los niños preguntan por papa
El dueño de la casa los corrio del lugar
Pues no habia dinero con que pagar
El se entero de todo y en su celda lloro
Tuvo ataque de asma su salud empeoro
Pues tanto dolor no lo pudo soportar
Sus ojos se cerraron y jamas volvio..
                  A despertarrr

Murio en prision por cultivar marihuana
Murio en prision por cultivar marihuana
(murio en prisioonn) por cultivar marihuana
(murio en prisioonn) por cultivar marihuana

Gm F X16

e|----------------------------------------------------------------|
B|----------------------------------------------------------------|
G|-12-10-12----12-12-14-12-14----14-14-15-14-15----15-15-17-15-17-|X
D|----------------------------------------------------------------|4
A|----------------------------------------------------------------|
E|----------------------------------------------------------------|

e|-14-17-20-21-|
B|-------------|
G|-------------|

ESO ES TODO CUALQUIKER DUDA manden msj a matiasamanecido_rnr97@

simbolos:
v: hacer vibrar la cuerda
^: estirar la cuerda
~: hacer pausa

            
            
Suggest correction
Creating personal tab
Creating personal tab
You can edit any tab online and save it as your Personal.

You can edit, replace or remove any tab part or add personal notes – all changes will be seen only by you.

Personal tabs can be accessed anytime from any device, even offline.
Learn more »
Give kudos to tab author, rate the tab!
1 2 3 4 5
comments
print report bad tab
guest
Wanna post a correction for this tab? Suggest correction