Oops, an error
Loading. Please wait.

Mi Estrella tab

by RestArt
687 views 1 this week
no commentswrite comment
1 2 3 4 5
3 more votes to show rating
add to favorites
×
Save as Personal and add changes to this tab that will be seen only by you. Learn more ›
×
You can save this tab as Personal to edit and correct it or add notes. All changes will be seen only by you. Learn more »
launch autoscroll
font size
0
reset
how to read this tab
guitar tuner
edit
Autoscroll
slow
fast
+/-
esc
set tempo
stop
Bueno, esta canción es la tercera que saco a oído... Espero les guste!!
(No olviden calificar)

La primer parte de la canción va con este mismo punteo (Antes de el coro).

El acorde C9, haciéndolo de esta manera:

E-3
B-3
G-0
D-2
A-3
E-0


Intro:...

  G          D                       Am7        C9

--------3----2--------2/3/2----------------0-----3-----2/0------------
------3------3---------------3-----------1-------3---------2----------
----0--------2------2-----------2------0---------0---0-------0--------
-------------0--------------------------------------------------------
-------------------------------------0-----------3--------------------
--3-------------------------------------------------------------------


  G          D                       Am7        C9

--------3----2--------2/3/2----------------0-----3--------------------
------3------3---------------3-----------1-------3--------------------
----0--------2------2-----------2------0---------0--------------------
-------------0--------------------------------------------------------
-------------------------------------0-----------3--------------------
--3-------------------------------------------------------------------

G           D         Am7                 C9
 Algo debió de suceder  el tiempo que pasó no apago el sentimiento
G              D           Am7              C9
 Cuando volviste a aparecer  sentía que latía el lado izquierdo de mi pecho
G          D               Am7            C9
 Ya no sé que hacer yo te quiero llamar y que decirte no se
G          D                 Am7         C9
 Pero no me quedo así y por fin te lo diré...

       G          D
Yo te amo, yo te quiero
         Am7                       C9
Como una estrella que nunca se apaga en mí
     G       D
Tu amor me pegó
                  Am7                    C9
Guardo aquí en mi corazón lo que me hace sonreír, como tú...


 G          D                       Am7        C9

--------3----2--------2/3/2----------------0-----3-----2/0------------
------3------3---------------3-----------1-------3---------2----------
----0--------2------2-----------2------0---------0---0-------0--------
-------------0--------------------------------------------------------
-------------------------------------0-----------3--------------------
--3-------------------------------------------------------------------


 G          D                       Am7        C9

--------3----2--------2/3/2----------------0-----3--------------------
------3------3---------------3-----------1-------3--------------------
----0--------2------2-----------2------0---------0--------------------
-------------0--------------------------------------------------------
-------------------------------------0-----------3--------------------
--3-------------------------------------------------------------------


G           D         Am7                 C9
 Algo debió de suceder  el tiempo que pasó no apago el sentimiento
G              D           Am7              C9
 Cuando volviste a aparecer  sentía que latía el lado izquierdo de mi pecho
G          D               Am7             C9
 Ya no sé que hacer yo te quiero llamar y que decirte no se
G        D                 Am7           C9
 Pero no me quedo así y por fin te lo diré...


       G          D
Yo te amo, yo te quiero
         Am7                       C9
Como una estrella que nunca se apaga en mí
     G       D
Tu amor me pegó
                  Am7                    C9
Guardo aquí en mi corazón lo que me hace sonreír, como tú... x2

Am7                           C9
Aún tenemos mucho por vivir, algún momento para compartir
     G                  D
Mi amor te guiará, sólo déjate llevar.
    Am7                            C9
Tal vez un dia te voy a encontrar en otro tiempo, en otro lugar.
      G
La estrella va a brillar,
      D
La estrella va a brillar. (la canción sube de tono)

       A          E
Yo te amo, yo te quiero
         Bm                       D
Como una estrella que nunca se apaga en mí
     A       E
Tu amor me pegó
                  Bm                    D
Guardo aquí en mi corazón lo que me hace sonreír, como tú...(x2)

            
            
Suggest correction
Creating personal tab
Creating personal tab
You can edit any tab online and save it as your Personal.

You can edit, replace or remove any tab part or add personal notes – all changes will be seen only by you.

Personal tabs can be accessed anytime from any device, even offline.
Learn more »
Give kudos to tab author, rate the tab!
1 2 3 4 5
comments
print report bad tab
guest
Wanna post a correction for this tab? Suggest correction