Oops, an error
Loading. Please wait.

Ill Still Be Loving You Bass Tab

version 2
version 2

Whole song

Interactive

412 views 1 this week
no commentswrite comment
1 2 3 4 5
1 last vote to show rating
add to favorites
launch autoscroll
font size
0
reset
guitar tuner
Autoscroll
slow
fast
+/-
esc
set tempo
stop
Help us to improve Ultimate-Guitar.com Take our survey!
×
Author
Ill still be loving you
Restless Hearts
Tab by: avill616@yahoo.com

Intro:
G|----------------------|
D|----------------------|
A|----------3----5----5-|
E|-3----0---------------|

Verse:
G|---------------|---------------------|
D|---------------|---------------------|
A|-------3--5--5-|-------3--3--3-5--5\-|
E|-3--0----------|-3--0----------------|

Refrain:
G|-----------------------|---------------------------------|
D|-----------------------|---------------------------------|
A|-3-3-3-------5-5--5-5--|-3-3-3-------5-5--5-5--7--7-7--7-|
E|-------3-3-3-----------|-------3-3-3---------------------|

Chorus:
G|-----------------------------|------------------|
D|----------4--4-4--4----------|------------------|
A|-0--0-0--0---------4--4-4--4-|-3-3-3------------|
E|-----------------------------|-------3-3-3--5-5-|

G|-----------------------------|-------------------------|
D|----------4--4-4--4----------|-------------------------|
A|-0--0-0--0---------4--4-4--4-|-3-3-3-------3-3-3-------|
E|-----------------------------|-------3-3-3-------3-3-3-|

G|--------------------------------|
D|--------------------------------|
A|-5--5-5--5--5-5--3--3-3--3--3-3-|
E|--------------------------------|

Verse2:
G|--------------------------------|-----------------------------------|
D|--------------------------------|-----------------------------------|
A|-----------------3--3-3--5--5-5-|----------------3--3-3--3--5--5-5\-|
E|-3--3-3---0--0-0----------------|-3--3-3--0--0-0--------------------|

Refrain:
G|-----------------------|--------------------------------------|
D|-----------------------|--------------------------------------|
A|-3-3-3-------5-5--5-5--|-3-3-3-------5-5--5-5--7--7-7--7--7-7-|
E|-------3-3-3-----------|-------3-3-3--------------------------|

Chorus:
G|-----------------------------|------------------|
D|----------4--4-4--4----------|------------------|
A|-0--0-0--0---------4--4-4--4-|-3-3-3------------|
E|-----------------------------|-------3-3-3--5-5-|

G|-----------------------------|-------------------------|
D|----------4--4-4--4----------|-------------------------|
A|-0--0-0--0---------4--4-4--4-|-3-3-3-------3-3-3-------|
E|-----------------------------|-------3-3-3-------3-3-3-|

G|-----------------------|
D|-----------------------|
A|-5--5-5--7--7----------|
E|-------------9--9-7--7-|

Adlib:
G|-----------------------------|----------------------|
D|-----------------------------|----------------------|
A|--------4--4-4--------2--2-2-|--------4--4-4--------|
E|-0--0-0--------5--5-5--------|-0--0-0--------4--4-4-|

G|-----------------------------|
D|-----------------------------|
A|---------------------7-7-----|
E|-3-3-3-3/5--5-5-5-5------0-5-|

Chorus:
G|-----------------------------|------------------|
D|----------4--4-4--4----------|------------------|
A|-0--0-0--0---------4--4-4--4-|-3-3-3------------|
E|-----------------------------|-------3-3-3--5-5-|

G|-----------------------------|-------------------------|
D|----------4--4-4--4----------|-------------------------|
A|-0--0-0--0---------4--4-4--4-|-3-3-3-------3-3-3-------|
E|-----------------------------|-------3-3-3-------3-3-3-|

G|--------------------------------|
D|--------------------------------|
A|-5--5-5--5--5-5--3--3-3--3--3-3-|
E|--------------------------------|

Outro:
G|---------------------------------|
D|----7-7-----7-7-----5-5-----5-5--|
A|-5-------5-------3-------3-------|till fade
E|---------------------------------|
Suggest correction
Give kudos to tab author, rate the tab!
1 2 3 4 5
comments
print report bad tab
guest
You may want to rate the tab now too:
select rating
Wanna post a correction for this tab? Suggest correction