Oops, an error
Loading. Please wait.

Blamethrower bass

version 2
version 2

Whole song

Interactive

by Reuben
590 views 1 this week
no commentswrite comment
1 2 3 4 5
3 more votes to show rating
add to favorites
×
Save as Personal and add changes to this tab that will be seen only by you. Learn more ›
×
You can save this tab as Personal to edit and correct it or add notes. All changes will be seen only by you. Learn more »
launch autoscroll
font size
0
reset
guitar tuner
edit
Autoscroll
slow
fast
+/-
esc
set tempo
stop
Author
-------------------------------------------------------------------------------
			     Blamethrower - Reuben
-------------------------------------------------------------------------------

Tabbed By : Ben Jones
e-mail: nothing_like_you@hotmail.co.uk

Tuning: Db Ab Db Gb

Intro

Gb|---------------------------------------------------------------------------|
Db|-------------------------------------------------------------x4------------|
Ab|---------------------------------------------------------------------------|
Db|-0-12-12-12-0-0-5-5-5-6-6-6-7-7--------------------------------------------|

Preverse

Gb|---------------------------------------------------------------------------|
Db|-------------------------------------------------------------x4------------|
Ab|---------------------------------------------------------------------------|
Db|-7-7-8-8-9-0-0-7-7-8-8-9-0-0-0---------------------------------------------|

Verse

Gb|---------------------------------------------------------------------------|
Db|-------------------------------------------------------------x4------------|
Ab|---------------------------------------------------------------------------|
Db|-0-12-12-12-0-0-5-5-5-6-6-6-7-7--------------------------------------------|

Prechorus

Gb|---------------------------------------------------------------------------|
Db|-------------------------------------------------------------x4------------|
Ab|---------------------------------------------------------------------------|
Db|-7-7-8-8-9-0-0-7-7-8-8-9-0-0-0---------------------------------------------|

Chorus

Gb|---------------------------------------------------------------------------|
Db|-------------------------------------------------------------x3------------|
Ab|---------------------------------------------------------------------------|
Db|--0--0--0--7-9-9-7-9-9-7-9-------------------------------------------------|

Gb|---------------------------------------------------------------------------|
Db|-------------------------------------------------------------x1------------|
Ab|---------------------------------------------------------------------------|
Db|--3-3-3-4-4-4-5-5-6-6------------------------------------------------------|

Preverse

Gb|---------------------------------------------------------------------------|
Db|-------------------------------------------------------------x4------------|
Ab|---------------------------------------------------------------------------|
Db|-7-7-8-8-9-0-0-7-7-8-8-9-0-0-0---------------------------------------------|

Verse (guitar cuts out and joins at the start of the 5th time)

Gb|---------------------------------------------------------------------------|
Db|-------------------------------------------------------------x12-----------|
Ab|---------------------------------------------------------------------------|
Db|-00-00-00-00-00------------------------------------------------------------|

Bridge

Gb|---------------------------------------------------------------------------|
Db|-------------------------------------------------------------x1------------|
Ab|---------------------------------------------------------------------------|
Db|--00-000-000-000-11111111-00-000-000-000-----------------------------------|

Prechorus

Gb|------------|--------------------------------------------------------------|
Db|------------|------------------------------------------------x4------------|
Ab|------------|--------------------------------------------------------------|
Db|--0--0--0-|--7-7-8-8-9-0-0-7-7-8-8-9-0-0-0---------------------------------|

Chorus

Gb|---------------------------------------------------------------------------|
Db|-------------------------------------------------------------x3------------|
Ab|---------------------------------------------------------------------------|
Db|--0--0--0--7-9-9-7-9-9-7-9-------------------------------------------------|

Gb|---------------------------------------------------------------------------|
Db|-------------------------------------------------------------x1------------|
Ab|---------------------------------------------------------------------------|
Db|--3-3-3-4-4-4-5-5-6-6------------------------------------------------------|

Chorus (repeat)

Gb|---------------------------------------------------------------------------|
Db|-------------------------------------------------------------x3------------|
Ab|---------------------------------------------------------------------------|
Db|--0--0--0--7-9-9-7-9-9-7-9-------------------------------------------------|

Gb|---------------------------------------------------------------------------|
Db|-------------------------------------------------------------x1------------|
Ab|---------------------------------------------------------------------------|
Db|--3-3-3-4-4-4-5-5-6-6------------------------------------------------------|

Ending

Gb|---------------------------------------------------------------------------|
Db|-------------------------------------------------------------x10-----------|
Ab|---------------------------------------------------------------------------|
Db|-0-12-12-12-0-0-5-5-5-6-6-6-7-7--------------------------------------------|

| /  slide up
| \  slide down
| h  hammer-on
| p  pull-off
| ~  vibrato
| +  harmonic
| x  Mute note
===============================================================================


            
            
Suggest correction
Creating personal tab
Creating personal tab
You can edit any tab online and save it as your Personal.

You can edit, replace or remove any tab part or add personal notes – all changes will be seen only by you.

Personal tabs can be accessed anytime from any device, even offline.
Learn more »
Give kudos to tab author, rate the tab!
1 2 3 4 5
comments
print report bad tab
guest
You may want to rate the tab now too:
select rating
Wanna post a correction for this tab? Suggest correction