Oops, an error
Loading. Please wait.

Deadly Lethal Ninja Assassin tab

version 1
version 1

Whole song

Interactive

by Reuben
2,928 views 1 this week
no commentswrite comment
1 2 3 4 5
x 3
add to favorites
×
Save as Personal and add changes to this tab that will be seen only by you. Learn more ›
×
You can save this tab as Personal to edit and correct it or add notes. All changes will be seen only by you. Learn more »
launch autoscroll
font size
0
reset
how to read this tab
guitar tuner
edit
Autoscroll
slow
fast
+/-
esc
set tempo
stop
Difficulty
intermediate
Reuben - Deadly Lethal Ninja Assassin

By Alex, The White Coats http://www.thewhitecoats.co.uk

I Put Intermediate To Be Safe But Its Not That Hard... Good Luck!

Tuning - B,F#,B,E,G#,C#

Verse

C#|-------------------------------------------|
G#|-------------------------------------------|
E |-------------------------------------------|
B |0-0-0-0--7-7-7-7--10-10-10-10--5-5-5-5-----|
F#|0-0-0-0--7-7-7-7--10-10-10-10--5-5-5-5-----|
B |0-0-0-0--7-7-7-7--10-10-10-10--5-5-5-5-----|    x4

Pre Chorus

C#|-------...
G#|-------...
E |-------...
B |2-2-2-2...
F#|2-2-2-2...
B |2-2-2-2...           And So On


Chorus

C#|---------------------------------------------|
G#|---------------------------------------------|
E |---------------------------------------------|
B |7-7--10-10--5-5-5-5-5-5-5-5--3-3-3-3-3-3-3-3-|
F#|7-7--10-10--5-5-5-5-5-5-5-5--3-3-3-3-3-3-3-3-|
B |7-7--10-10--5-5-5-5-5-5-5-5--3-3-3-3-3-3-3-3-|


The "Really Cool Tattoo" Bit

C#|---------------------------------|
G#|---------------------------------|
E |---------------------------------|
B |3-3-3-3-3-3-3-3--0-0-0-0-0-0-0-0-|
F#|3-3-3-3-3-3-3-3--0-0-0-0-0-0-0-0-|
B |3-3-3-3-3-3-3-3--0-0-0-0-0-0-0-0-|  (Play each note as many times as the song does)

The same notes for the muted emo thing


Repeat Until The "You're Dressed Like A victiorian at a swimming pool" bit


Bass Part

E |-------------|
B |--4----------|
F#|2--0-----0---|
B |-----4-5---0-|   Play Each Note 4 times until u play the note open then play 8 times.

(There is a slight lead bit to this part but i cant really hear it, but im sure if you were
to play this live you could get away with not doing it)

Then chorus played muted emo thingy then played normally

C#|---------------------------------------------|
G#|---------------------------------------------|
E |---------------------------------------------|
B |7-7--10-10--5-5-5-5-5-5-5-5--3-3-3-3-3-3-3-3-|
F#|7-7--10-10--5-5-5-5-5-5-5-5--3-3-3-3-3-3-3-3-|
B |7-7--10-10--5-5-5-5-5-5-5-5--3-3-3-3-3-3-3-3-|

Song Structure

Verse
Chorus
Verse
Chorus
Middle 8 (Victorian at a Swimming pool bit and the bit before)
Chorus until end


Many Thanks, Please refer to song to ensure u get the timings right.

Copyright© - Alex Herrington - Do Not Edit This In Any Way

            
            
Suggest correction
Creating personal tab
Creating personal tab
You can edit any tab online and save it as your Personal.

You can edit, replace or remove any tab part or add personal notes – all changes will be seen only by you.

Personal tabs can be accessed anytime from any device, even offline.
Learn more »
Give kudos to tab author, rate the tab!
1 2 3 4 5
comments
print report bad tab
guest
Wanna post a correction for this tab? Suggest correction