Oops, an error
Loading. Please wait.

Death Of A Star tab

by Reuben
715 views 1 this week
1 commentread comment
1 2 3 4 5
2 more votes to show rating
add to favorites
×
Save as Personal and add changes to this tab that will be seen only by you. Learn more ›
×
You can save this tab as Personal to edit and correct it or add notes. All changes will be seen only by you. Learn more »
launch autoscroll
font size
0
reset
how to read this tab
guitar tuner
edit
Autoscroll
slow
fast
+/-
esc
set tempo
stop
Reuben – Death of a Star – Pilot EP
Tabed by Ste ‘H’ after a 2 long days in bed
e-mail d4013255@tees.ac.uk

b	Bend
h	Hammer on
p	Pull off
\	Slide down
/	Slide up

You can download the pilot EP from Wikipedia for free so you have no excuse not to learn
song. Just find Reuben the band (UK) page!
Main Riff/Intro
e|---------------------------|
B|---------------------------|
G|-7-7-7-6-4-6/7-6-6-6-6-6-6-|
D|-0-0-0-0-0-0---4-4-4-4-4-4-|
A|-0-0-0-0-0-0---4-4-4-4-4-4-|
D|-0-0-0-0-0-0---4-4-4-4-4-4-|

e|-------------------------|
B|-------------------------|
G|-7-7-7-7-2-2-6-6-6-6-6-6-|
D|-0-0-0-0-0-0-4-4-4-4-4-4-|
A|-0-0-0-0-0-0-4-4-4-4-4-4-|
D|-0-0-0-0-0-0-4-4-4-4-4-4-|

e|---------------------------|
B|---------------------------|
G|-7-7-7-6-4-6/7-6-6-6-6-6-6-|
D|-0-0-0-0-0-0---4-4-4-4-4-4-|
A|-0-0-0-0-0-0---4-4-4-4-4-4-|
D|-0-0-0-0-0-0---4-4-4-4-4-4-|

e|-------------------------|
B|-------2-2-2-------------|
G|-2-2-2-2-2-2-6-6-6-6-6-6-|
D|-0-0-0-0-0-0-4-4-4-4-4-4-|
A|-0-0-0-0-0-0-4-4-4-4-4-4-|
D|-0-0-0-0-0-0-4-4-4-4-4-4-|

pre verse
e|-------------------------------------|
B|-------------------------------------|
G|--7---6—7p6\4---4/6--7---6-7p6---2---|
D|-------------------------------------|
A|-------------------------------------|
D|-------------------------------------|

1st verse
e|--------------------------------------------------|
B|---3----------------------------------------------|
G|---2-------5/7------------------------------------|    x2    (the timing follows the lyrics)
D|---4-------3/5------|            |---x72---x6/x6--|
A|--------------------------------------------------|
D|--------------------------------------------------|

chorus
e|--------------------------------------------|
B|--------------------------------------------|
G|--------------------------------------------|
D|--0-0-0--0--0-0-0-0--4-4-4-4-4-4-4-4—(5-4)--|
A|--0-0-0--0--0-0-0-0--4-4-4-4-4-4-4-4—(5-4)--|
D|--0-0-0--0--0-0-0-0--4-4-4-4-4-4-4-4—(5-4)--|
									x2
e|--------------------------------------|
B|--------------------------------------|
G|--------------------------------------|
D|--0-0-0--0--0-0-0-0--9-9-9-9-9-9-9-9--|
A|--0-0-0--0--0-0-0-0--9-9-9-9-9-9-9-9--|
D|--0-0-0--0--0-0-0-0--9-9-9-9-9-9-9-9--|

Then back to the main riff but at the end play the F power chord with G-6 an extra 3
followed by D power chord x8

2nd verse
e|-------0----------|--------------------------------|
B|-----3---3--------|--------------------------------|
G|-----------2---x8-|--------7---------------------7-|
D|---4--------------|------4---4-------x7--------4---|
A|------------------|----5-------4h5-----------5-----|
D|------------------|--0---------------------0-------|
There are several things you can play that fit into the first part of verse 2 that
around that chord, so long as its that chord you play you cant go wrong so find 
you
 The last part is for a bass but you can work it on guitar.

Bridge/break down
After playing the chorus into the main riff as usual (but with a big bend at the end of
third extra bar) it gets tricky.  You can mix n match between chorus and riff;
Play the main riff but play the G notes on the D eg
e|---------------------------|
B|---------------------------|
G|---------------------------|
D|-7-7-7-6-4-6/7-6-6-6-6-6-6-|
A|-0-0-0-0-0-0---4-4-4-4-4-4-|
D|-0-0-0-0-0-0---4-4-4-4-4-4-|
or play it on both D & G eg
e|---------------------------|
B|---------------------------|
G|-7-7-7-6-4-6/7-6-6-6-6-6-6-|
D|-7-7-7-6-4-6/7-6-6-6-6-6-6-|
A|-0-0-0-0-0-0---4-4-4-4-4-4-|
D|-0-0-0-0-0-0---4-4-4-4-4-4-|

play out
e|--------------------------------------------------------------------|
B|--------------------------------------------------------------------|
G|--------------------------------------------------------------------|
D|-4-4-4-2-2-4b—4-4-4-4-4-(x2)--2-2-2-0-0-0-1-1-1-1-0-0-2-2-2-0-0-0-1-|
A|--------------------------------------------------------------------|
D|--------------------------------------------------------------------|

This is my first full tab and it is the whole song every bit you want to know.  I’ve
it over and over again and i’m sure its perfect which is good since this tab doesn’t exist
 Get it, learn it and spread the good “Words From Reuben”!  If you’ve got a problem with 
and think you can do better then where was your tab when i wanted to learn this song?

            
            
Suggest correction
Creating personal tab
Creating personal tab
You can edit any tab online and save it as your Personal.

You can edit, replace or remove any tab part or add personal notes – all changes will be seen only by you.

Personal tabs can be accessed anytime from any device, even offline.
Learn more »
Give kudos to tab author, rate the tab!
1 2 3 4 5
comments
print report bad tab
1 comment total.
+2 reply
fs_ollie 77 Jan 02, 2008 06:41 AM

I think it should go...

Main Riff/Intro
e|---------------------------|
B|---------------------------|
G|-7-7777-6-4-6/7-6-6-6-6-6-6-|
D|-0-0000-0-0-0---4-4-4-4-4-4-|
A|-0-0000-0-0-0---4-4-4-4-4-4-|
D|-0-0000-0-0-0---4-4-4-4-4-4-|

e|-------------------------|
B|-------------------------|
G|-7-7777-6-2-2-----------------|
D|-0-0000-0-0-0-11-11-11-11-11--|
A|-0-0000-0-0-0-9--9--9--9--9--|
D|-0-0000-0-0-0-9--9--9--9--9--|

e|---------------------------|
B|---------------------------|
G|-7-7-7-6-4-6/7-6-6-6-6-6-6-|
D|-0-0-0-0-0-0---4-4-4-4-4-4-|
A|-0-0-0-0-0-0---4-4-4-4-4-4-|
D|-0-0-0-0-0-0---4-4-4-4-4-4-|

e|-------------------------------------------------|
B|-------------------------------------------------|
G|------9/11-11-11-11-11-11-11/12-6-6-6-6-6-6-6----|
D|-------------------------------------------------|
A|-9797-7/9--9--9--9--9--9--9/10--4-4-4-4-4-4-4----|
D|-------------------------------------------------|

guest
Wanna post a correction for this tab? Suggest correction