Oops, an error
Loading. Please wait.

Eating Only Apples bass

version 2
version 2

Whole song

Interactive

by Reuben
443 views 1 this week
no commentswrite comment
1 2 3 4 5
3 more votes to show rating
add to favorites
×
Save as Personal and add changes to this tab that will be seen only by you. Learn more ›
×
You can save this tab as Personal to edit and correct it or add notes. All changes will be seen only by you. Learn more »
launch autoscroll
font size
0
reset
guitar tuner
edit
Autoscroll
slow
fast
+/-
esc
set tempo
stop
as requested, Drop Db version...


Eating Only apples bass by Reuben bass tab

From the album Racecar is Racecar Backwards

Tabbed by Bikenutter

Tuning Drop db

\  = slide ( \ = down, / = up)
~  = let ring
b  = bend
br = bend and release
h  = hammer on
p  = pull off
x  = heavily muted note
1 (x10) = Play note 1 10 times

Intro

Gb---------------------------------------|
Db---------------------------------------|
Ab---------------------------------------|
Db----0-0-0-0-0-0-0-0-0-0-0-0-0-0-0-0----|

Gb---------------------------------------|
Db---------------------------------------|
Ab----3-3-3-2-2-2-3-3-3-2-2-2------------|
Db----------------------------5-5-5-3~~--|


Gb---------------------------------------|
Db---------------------------------------|
Ab---------------------------------------|
Db----0-0-0-0-0-0-0-0-0-0-0-0-0-0-0-0----|

Gb---------------------------------------|
Db--------------------------3------------|
Ab----------------------3-5---5-3~-------|
Db---0-0-0-0-0-0-0-0-0-------------------|

And then repeat


Gb---------------------------------------|
Db---------------------------------------|
Ab---------------------------------------|
Db----0-0-0-0-0-0-0-0-0-0-0-0-0-0-0-0----|

Gb---------------------------------------|
Db---------------------------------------|
Ab----3-3-3-2-2-2-3-3-3-2-2-2------------|
Db----------------------------5-5-5-3~~--|


Gb---------------------------------------|
Db---------------------------------------|
Ab---------------------------------------|
Db----0-0-0-0-0-0-0-0-0-0-0-0-0-0-0-0----|

Gb---------------------------------------|
Db--------------------------3------------|
Ab----------------------3-5---5-3~-------|
Db---0-0-0-0-0-0-0-0-0-------------------|

Pre-Chorus

Gb----------------------------|
Db----------------------------|
Ab----------------------------|
Db----0-0-0-0--3\--0-0-0-0----|

Gb----------------------------|
Db----------------------------|
Ab----------------------------|
Db----0-0-0-0--0-0-0-0--------|     x 2

Then

Gb------------------------------|
Db------------------------------|
Ab------------------------------|
Db----R-E-S-T------5-5----------|

Chorus

      "Suuuummmmmeeeerrrrr!!!!!!!!"

Gb-----------------------------------------|
Db-----------------------------------------|
Ab-----------------------------------------|
Db----0-0-0-0-0-0-0-0-0-0-0-0-0-0-0-0-3\---|

Gb--------------------------------------------|
Db--------------------------------------------|
Ab----3-3-3-2-2-2-3-3-3-2-2----2-2-0-0--------|
Db--------------------------3\----------------|

Gb---------------------------------------------|
Db--------------------------------3------------|
Ab----------------------------3-5---5-3--------|
Db----4-4-4-3\-3-3-3-3--0-0--------------------|

Then repeat

       "And i gooooo!!!!"

Gb-----------------------------------------|
Db-----------------------------------------|
Ab-----------------------------------------|
Db----0-0-0-0-0-0-0-0-0-0-0-0-0-0-0-0-3\---|

Gb--------------------------------------------|
Db--------------------------------------------|
Ab----3-3-3-2-2-2-3-3-3-2-2----2-2-0-0--------|
Db--------------------------3\----------------|

Gb---------------------------------------------|
Db--------------------------------3------------|
Ab----------------------------3-5---5-3--------|
Db----4-4-4-3\-3-3-3-3--0-0--------------------|


Breakdown

        "And i won't come down to earth"

Gb----------------------------------------|
Db----------------------------------------|
Ab----------------------------------------|
Db----5-5-5-5-3-3-3-3-0-0-0-0-0-0-0-------|  played a few times

Fill (just guitar playing apart from...

Gb----------------------------------------|
Db----------------------------------------|
Ab----------------------------------------|
Db----------------12\---------------------|

...somewhere in the middle. and...

Gb----------------------------------------|
Db----------------------------------------|
Ab----------------------------------------|
Db--------------------------0-2-0-2-0-2---|

towards the end)

Outro

Gb-------------------------------------------|
Db-------------------------------------------|
Ab-------------------------------------------|
Db----0-0-0-0-4-0-0-6-0-0-8---10-10-10-10----|

Gb-------------------------------------------|
Db-------------------------------------------|
Ab-------------------------------------------|
Db----0-0-0-0-4-0-0-6-0-0-8---9-9-9-9--------|


played a load of times

That's the lot - questions or abuse (both appreciated)
then mail me bikenutter@hotmail.com

            
            
Suggest correction
Creating personal tab
Creating personal tab
You can edit any tab online and save it as your Personal.

You can edit, replace or remove any tab part or add personal notes – all changes will be seen only by you.

Personal tabs can be accessed anytime from any device, even offline.
Learn more »
Give kudos to tab author, rate the tab!
1 2 3 4 5
comments
print report bad tab
guest
You may want to rate the tab now too:
select rating
Wanna post a correction for this tab? Suggest correction