Oops, an error
Loading. Please wait.

Return Of The Jedi bass

by Reuben
995 views 1 this week
1 commentread comment
1 2 3 4 5
1 last vote to show rating
add to favorites
×
Save as Personal and add changes to this tab that will be seen only by you. Learn more ›
×
You can save this tab as Personal to edit and correct it or add notes. All changes will be seen only by you. Learn more »
launch autoscroll
font size
0
reset
guitar tuner
edit
Autoscroll
slow
fast
+/-
esc
set tempo
stop
-------------------------------------------------------------------------------
			     Return of the Jedi - Reuben
-------------------------------------------------------------------------------

Tabbed By : Louis Richards AKA MadClownDisease
e-mail: hereticbynature@hotmail.com

Tuning: Drop C# (C#G#C#F#)

This song is pretty simple I suppose but requires some fast picking/fingering at some 
And remember kids, "PIRACY IS PIRACY WHETHER YOU SAIL THE SEVEN SEAS OF SURF THE NET!".

Intro/First Verse - only guitar

Pre-Chorus (0:36)
F#|-------------------------------------------------|
C#|-------------------------------------------------|
G#|-------------------------------------------------|
C#|-0-0-0-0-0---0-0-0-0-0---0-0-0-0-0---0-0-0-0-0---|

Chorus (0:43) x3
F#|---------------------------------------------------|
C#|---------------------------------------------------|
G#|---------------------------------------------------|
C#|-8-8-8-8---8-8-8-8---8-8---6-6-6-6---6-6-6-6---6-6-|

F#|---------------------------------------------------|
C#|---------------------------------------------------|
G#|---------------------------------------------------|
C#|-3-3-3-3---3-3-3-3---3-3---0-0-0-0---0-0-0-0---0-0-|

Bridge (1:05) (I think he might play a slight rhythm here but playing straight sounds fine)
F#|-----------------------------------------------------------------|
C#|-----------------------------------------------------------------|
G#|-----------------------------------------------------------------|
C#|-3-3-3-3-3-3-3-3-3-3-3-3-3-3-3-3-0-0-0-0-0-0-0-0-0-0-0-0-0-0-0-0-|

F#|------------------------------------------------------------------|
C#|------------------------------------------------------------------|
G#|------------------------------------------------------------------|
C#|-3-3-3-3-3-3-3-3-3-3-3-3-3-3-3-3-0-0-0-0-0-0-0-0-0-0-0-0-0-0-3/12-|

Verse (1:29) x4
F#|----------------------------------------------------------------------|
C#|----------------------------------------------------------------------|
G#|----------------------------------------------------------------------|
C#|-12-12-12--0--12-12-12-0---12-0----12-12-12--0--12-12-12-0---12-0-----|

F#|----------------------------------------------------------------------|
C#|----------------------------------------------------------------------|
G#|----------------------------------------------------------------------|
C#|-12-12-12--0--12-12-12-0---12-0----12-12-12--0--12-12-12-0---12-0--11-|

Pre-Chorus (1:58)

Bridge (2:05)
F#|--------------------------------------------|
C#|--------------------------------------------| x3
G#|--------------------------------------------|
C#|-3-3-3-3-3--3-3-3-3-3--0-0-0-0-0--0-0-0-0-0-|

F#|---------------------------------------------|
C#|---------------------------------------------| x1
G#|---------------------------------------------|
C#|-3-3-3------3-3-3------0-0-0------0-0-0-3/12-|

Middle bit (2:34)
F#|-------------------------------------|
C#|-------------------------------------| x7
G#|-------------------------------------|
C#|-12---12-12-12-11---11-11-11-7---11--|

F#|-------------------------------------------------|
C#|-------------------------------------------------| x1
G#|-------------------------------------------------|
C#|-12---12-12-12-11---11-11-11-7-0-0-0-6-0-7-0-8---|

Bridge (3:23)
F#|---------------------------------------------------------------------------|
C#|-0---10-10-12-12---10-10-10-12---10-12---10-10-12-12---10-10-10-12---10-12-| x1
G#|---------------------------------------------------------------------------|
C#|---------------------------------------------------------------------------|

F#|-----------------------------------------------------------------------|
C#|-10-10-12-12---10-10-10-12---10-12---10-10-12-12---10-10-10-12---10-12-| x6
G#|-----------------------------------------------------------------------|
C#|-----------------------------------------------------------------------|

Chorus (3:45) - ("And if you're thinking 'So? So?'")
F#|-----------------------------------------|
C#|-----------------------------------------| x3
G#|-----------------------------------------|
C#|-8-8-8-8---6-6-6-6---3-3-3-3---0-0-0-0---|

F#|-------------------------------------------|
C#|-------------------------------------------| x1
G#|-------------------------------------------|
C#|-8-8-8-8---6-6-6-6---3-3-3-3---0-0-0-0-3/8-|

F#|-----------------------------------------|
C#|-----------------------------------------| x2
G#|-----------------------------------------|
C#|-8-8-8-8---6-6-6-6---3-3-3-3---0-0-0-0---|

F#|-----------------------------------------|
c#|-----------------------------------------| x1
G#|-----------------------------------------|
C#|-0-0-0-0---0-0-0-0---0-0-0-0---0-0-0-0---|

Bridge to quiet part (4:36) x2
F#|-----------------------------------------|
c#|-----------------------------------------|
G#|-----------------------------------------|
C#|-7-7-7-7---5-5-5-5---2-2-2-2---3-3-3-3---|

Quiet part (4:50) x8
F#|---5-----4-----4-----5-----|
c#|-7-----5-----2-----3----3/-|
G#|---------------------------|
C#|---------------------------|

^ I think this might change/be slightly wrong but it is quite close ^
V Alternatively, it might be as below V

F#|---9-----7-----4-----5-----|
c#|-7-----5-----2-----3----3/-|
G#|---------------------------|
C#|---------------------------|

Loud part (5:47) x4  -  ("And I won't bother to make my music")
F#|-----------------------------------------|
c#|-----------------------------------------|
G#|-----------------------------------------|
C#|-7-7-7-7---5-5-5-5---2-2-2-2---3-3-3-3---|

Last Loud part (6:16)  -   Not quite sure of the rhythm here but I think the riff is 
accurate, if you want to check/work it out better the guitarist plays it slowly on his own 
the end of the song.
F#|----------------------------------------------------|
c#|----------------------------------------------------|
G#|----------------------------------------------------|
C#|-0--0--0-0-0-3-3-3-3-0-0-3-5--5--5-5-5--5-5-5--5-3--|

F#|----------------------------------------------------|
c#|----------------------------------------------------|
G#|----------------------------------------------------|
C#|-0--0--0-0-0-3-3-3-3-0-0-3-5--5--5-5-5--5-5-5--5-5--|

F#|----------------------------------------------------|
c#|----------------------------------------------------|
G#|----------------------------------------------------|
C#|-0--0--0-0-0-3-3-3-3-0-0-3-5--5--5-5-5--5-5-5--5-7--|

F#|----------------------------------------------------|
c#|----------------------------------------------------|
G#|----------------------------------------------------|
C#|-0--0--0-0-0-3-3-3-3-0-0-3-5--5--5-5-5--5-5-5--5-3--|

Outro (6:48) x2
F#|-----------------------------------------|
c#|-----------------------------------------|
G#|-----------------------------------------|
C#|-7-7-7-7---5-5-5-5---2-2-2-2---3-3-3-3---|


| /  slide up
| \  slide down
| h  hammer-on
| p  pull-off
| ~  vibrato
| +  harmonic
| x  Mute note
===============================================================================
Suggest correction
Creating personal tab
Creating personal tab
You can edit any tab online and save it as your Personal.

You can edit, replace or remove any tab part or add personal notes – all changes will be seen only by you.

Personal tabs can be accessed anytime from any device, even offline.
Learn more »
Give kudos to tab author, rate the tab!
1 2 3 4 5
comments
print report bad tab
1 comment total.
0 reply
AaronIsCrunchy 40 Jul 15, 2013 09:45 AM

Excellent tab! Nice work :)

guest
You may want to rate the tab now too:
select rating
Wanna post a correction for this tab? Suggest correction