Oops, an error
Loading. Please wait.

Return Of The Jedi tab

version 1
version 1

Whole song

by Reuben
894 views 1 this week
2 commentsread comments
1 2 3 4 5
3 more votes to show rating
add to favorites
×
Save as Personal and add changes to this tab that will be seen only by you. Learn more ›
×
You can save this tab as Personal to edit and correct it or add notes. All changes will be seen only by you. Learn more »
launch autoscroll
font size
0
reset
how to read this tab
guitar tuner
edit
Autoscroll
slow
fast
+/-
esc
set tempo
stop
Author
Difficulty
Artist/Band - Reuben
Album - Very Fast Very Dangerous
Song - Return Of The Jedi


Tuning: C# G# C# F# G B

Key:
x  = Mute string


Intro:
 B]--------------------------------|
 G]--------------------------------|
F#]--------------------------------|
C#]---x--x--x-0---x--x--x-0---x-0--| x3
G#]---x--x--x-0---x--x--x-0---x-0--|
C#]--12-12-12-0--12-12-12-0--12-0--|

 B]------------------------------|
 G]------------------------------|
F#]------------------------------|
C#]---x--x--x-0---x--x--x-0---x--|
G#]---x--x--x-0---x--x--x-0---x--|
C#]--12-12-12-0--12-12-12-0--12--|


Verse 1: x4
"Piracy is piracy."
 B]--------------------------------|
 G]--------------------------------|
F#]--------------------------------|
C#]---x--x--x-0---x--x--x-0---x-0--| x3
G#]---x--x--x-0---x--x--x-0---x-0--|
C#]--12-12-12-0--12-12-12-0--12-0--|

 B]------------------------------|
 G]------------------------------|
F#]------------------------------|
C#]---x--x--x-0---x--x--x-0---x--|
G#]---x--x--x-0---x--x--x-0---x--|
C#]--12-12-12-0--12-12-12-0--12--|


Pre-Chorus:
"It killed them."
 B]------------------|
 G]------------------| 
F#]------------------| 
C#]--12-12-12-12-12--| x4
G#]--12-12-12-12-12--|
C#]--12-12-12-12-12--| 


Chorus:
"I've got some news for you then my brother."
 B]-------------------------------------------------|
 G]-------------------------------------------------|
F#]-------------------------------------------------|
C#]--888-888-8---666-666-6---333-333-3---000-000-0--| x4
G#]--888-888-8---666-666-6---333-333-3---000-000-0--|
C#]--888-888-8---666-666-6---333-333-3---000-000-0--|


Fill:
(There's a little solo bit here I'm unsure about) 


Verse 1: x4
"Undeground, that's where we come from."
 B]--------------------------------|
 G]--------------------------------|
F#]--------------------------------|
C#]---x--x--x-0---x--x--x-0---x-0--| x3
G#]---x--x--x-0---x--x--x-0---x-0--|
C#]--12-12-12-0--12-12-12-0--12-0--|

 B]------------------------------|
 G]------------------------------|
F#]------------------------------|
C#]---x--x--x-0---x--x--x-0---x--|
G#]---x--x--x-0---x--x--x-0---x--|
C#]--12-12-12-0--12-12-12-0--12--|


Pre-Chorus:
"It kills me."
 B]------------------|
 G]------------------| 
F#]------------------| 
C#]--12-12-12-12-12--| x4
G#]--12-12-12-12-12--|
C#]--12-12-12-12-12--| 


Chorus:
"I can't stand it."
 B]-------------------------------------------------|
 G]-------------------------------------------------|
F#]-------------------------------------------------|
C#]--3-3-3-3-3---3-3-3-3-3---0-0-0-0-0---0-0-0-0-0--| x3
G#]--3-3-3-3-3---3-3-3-3-3---0-0-0-0-0---0-0-0-0-0--|
C#]--3-3-3-3-3---3-3-3-3-3---0-0-0-0-0---0-0-0-0-0--|

 B]--------0~---------0~---------0~-----0~--|
 G]--------0~---------0~---------0~-----0~--|
F#]-----------------------------------------|
C#]--3-3-3------3-3-3------0-0-0------0-----|
G#]--3-3-3------3-3-3------0-0-0------0-----|
C#]--3-3-3------3-3-3------0-0-0------0-----|


Middle Section:
 B]--------------------------------------|
 G]--------------------------------------|
F#]--------------------------------------|
C#]--12---12-12-12-11---11-11-11-7---11--| x4
G#]--12---12-12-12-11---11-11-11-7---11--|
C#]--12---12-12-12-11---11-11-11-7---11--|



That's about all I've got of it so far.
The next part plays power chords on one string above the
previous chord inbetween each one.
But the rest I dunno about.
If anyone knows then comment me yeah?
Thanks.
=]
Suggest correction
Creating personal tab
Creating personal tab
You can edit any tab online and save it as your Personal.

You can edit, replace or remove any tab part or add personal notes – all changes will be seen only by you.

Personal tabs can be accessed anytime from any device, even offline.
Learn more »
Give kudos to tab author, rate the tab!
1 2 3 4 5
comments
print report bad tab
2 comments total.
0 reply
MadClownDisease 583 May 19, 2007 07:14 AM

Being a bass player I'm not sure completely how accurate this is but I am using it make a bass tab and I plan to tab the end parts too so maybe you'll be able to get them on guitar as well after.

0 reply
MadClownDisease 583 May 19, 2007 08:28 AM

Well I've tabbed it to the best of my abilities and am now uploading it.

guest
You may want to rate the tab now too:
select rating
Wanna post a correction for this tab? Suggest correction