Oops, an error
Loading. Please wait.

Tonight My Wife Is Your Wife Tab

version 2
version 2

Whole song

Interactive

931 views 12 this week
no commentswrite comment
1 2 3 4 5
excellent!
x 3
add to favorites
launch autoscroll
font size
0
reset
how to read this tab
guitar tuner
Autoscroll
slow
fast
+/-
esc
set tempo
stop
Help us to improve Ultimate-Guitar.com Take our survey!
×
REUBEN
tonight my wife is your wife

tabbed by sacstan

D#|-5---5---5---5---5---5---5---5---5---5---4-------5---5---4--------|
Bb|---3---3---3---3---3---3---3---3---3---3---3---3---3---3---3---3--|
F#|---------------------------------------------4---------------4----|
C#|------------------------------------------------------------------|
G#|------------------------------------------------------------------|
C#|------------------------------------------------------------------|

D#|-7---7---7---7---7---7---7h9---9---5---5---4-------5---5---4-------|
Bb|-------------------------------------3---3---3---3---3---3---3---3-|
F#|---7---7---7---7---7---7-----7---7-------------4---------------4---|
C#|-------------------------------------------------------------------|
G#|-------------------------------------------------------------------|
C#|-------------------------------------------------------------------|

D#|----------------0-0-0-0-0-0-0-0-0-0-----------------------------------------------|
Bb|--------0-0-0-0-0-0-0-0-0-0-0-0-0-0-----------------------------------------------|
F#|2/4-4-4-4-4-4-4-4-4-4-4-4-4-4-4-4-4-----------------------------------------------|
C#|2/4-4-4-4-4-4-4-4-4-4-4-4-4-4-4-4-4-0-0-0-0h2-2-2-2-2-2-2-2-2-2-2-2-2-2-2-2-0-0-0-|
G#|0/2-2-2-2-2-2-2-2-2-2-2-2-2-2-2-2-2-0-0-0-0h2-2-2-2-2-2-2-2-2-2-2-2-2-2-2-2-0-0-0-|
C#|------------------------------------0-0-0-0h2-2-2-2-2-2-2-2-2-2-2-2-2-2-2-2-0-0-0-|

D#|------------------------------------------------------------------------------------|
Bb|--------0-0-0-0-0-0-0-0---0-0-0-0-0-0---0-0-0-0-------------------------------------|
F#|2/4-4-4-4-4-4-4-4-4-4-4-/-6-6-6-6-6-6-/-7-7-7-7-------------------------------------|
C#|2/4-4-4-4-4-4-4-4-4-4-4-/-x-x-x-x-x-x-/-x-x-x-x-0-0-0-2-2-2-2-2-2-2-2-2-2-2-2-2-2-2-|
G#|0/2-2-2-2-2-2-2-2-2-2-2-/-4-4-4-4-4-4-/-5-5-5-5-0-0-0-2-2-2-2-2-2-2-2-2-2-2-2-2-2-2-|
C#|------------------------------------------------0-0-0-2-2-2-2-2-2-2-2-2-2-2-2-2-2-2-|

D#|--------------------------------------------------|
Bb|--------------------------------------------------|    (X4)
F#|-10--10-10--10/-12---12-12--12\-6--6-6--6-6-6-6-6-|
C#|-10--10-10--10/-12---12-12--12\-7--7-7--7-7-7-7-7-|
G#|-8---8--8---8-/-10---10-10--10\-5--5-5--5-5-5-5-5-|
C#|-8---8--8---8-/-10---10-10--10\-0--0-0--0-0-0-0-0-|

D#|-5---5---4---4---5---5---4---4---5---5---4-------5---5---4------|
Bb|---3---3---3---3---3---3---3---3---3---3---3---3---3---3---3--3-|
F#|---------------------------------------------4--------------4---|
C#|----------------------------------------------------------------|
G#|----------------------------------------------------------------|
C#|----------------------------------------------------------------|

D#|-------------------------------------------------------------------------------|
Bb|-------------------------------------------------------------------------------|
F#|-4-4-4-4-4-4-4-4-/-16-16-16-16-16-16-16-16-\-4-4-4-4-4-4-4-4-/-16-16-16-16-16--|
C#|-x-x-x-x-x-x-x-x-/-x--x--x--x--x--x--x--x--\-x-x-x-x-x-x-x-x-/-x--x--x--x--x---|
G#|-2-2-2-2-2-2-2-2-/-14-14-14-14-14-14-14-14-\-2-2-2-2-2-2-2-2-/-14-14-14-14-14--|
C#|-------------------------------------------------------------------------------|

D#|------------------------------------------|
Bb|------------------------------------------|
F#|------------------------------------------|
C#|-0--0h2-2-2-2-2-2-2-2-2-2-2-2-2-2-2-2-----|
G#|-0--0h2-2-2-2-2-2-2-2-2-2-2-2-2-2-2-2-----|
C#|-0--0h2-2-2-2-2-2-2-2-2-2-2-2-2-2-2-2-/16-|

D#|-------------------------|
Bb|-------------------------|    (X4)
F#|-------------------------|
C#|-------------------------|
G#|-4h5-555---5-4-5-7-5-4-0-|
C#|-------------------------|

D#|----------------------------------------------------|
Bb|----------------------------------------------------|
F#|-10--10-10--10-/-12---12-12--12-\-6-----------6-----|
C#|-10--10-10--10-/-12---12-12--12-\-7--------------7--|
G#|-8---8--8---8--/-10---10-10--10-\-5-----------------|
C#|-8---8--8---8--/-10---10-10--10-\-0------0----------|

D#|----------------------------------------------|
Bb|----------------------------------------------|
F#|-10--10-10--10-/-12---12-12--12-\-6---------6-|
C#|-10--10-10--10-/-12---12-12--12-\-7---------7-|
G#|-8---8--8---8--/-10---10-10--10-\-5---------5-|
C#|-8---8--8---8--/-10---10-10--10-\-0---------0-|

D#|----------------------------------------------|
Bb|----------------------------------------------|
F#|-10--10-10--10-/-12---12-12--12-\-6---------6-|
C#|-10--10-10--10-/-12---12-12--12-\-7---------7-|
G#|-8---8--8---8--/-10---10-10--10-\-5---------5-|
C#|-8---8--8---8--/-10---10-10--10-\-0---------0-|

D#|-------------------------------------------|
Bb|-------------------------------------------|
F#|-10-10-10-10--12-12-12-12--6-6-6-6-6-6-6-6-|
C#|-10-10-10-10--12-12-12-12--7-7-7-7-7-7-7-7-|
G#|-8--8--8--8---10-10-10-10--5-5-5-5-5-5-5-5-|
C#|-8--8--8--8---10-10-10-10--0-0-0-0-0-0-0-0-|

D#|-5---5---4---4---5---5---4---4---5---5---7---7---9---9---10---12--|
Bb|---3---3---3---3---3---3---3---3---3---3--------------------------|
F#|-------------------------------------------7---7---9---9----9-----|
C#|------------------------------------------------------------------|
G#|------------------------------------------------------------------|
C#|------------------------------------------------------------------|

D#|--------------------------------------------------------------------------------------|
Bb|--------------------------------------------------------------------------------------|
F#|-4-4-4-4-4-4-4-4-/-16-16-16-16-16-16-16-16-/-18-18-18-18-18-18-18-18-/-14-14-14-14-14-|
C#|-x-x-x-x-x-x-x-x-/-x--x--x--x--x--x--x--x--/-x--x--x--x--x--x--x--x--/-x--x--x--x--x--|
G#|-2-2-2-2-2-2-2-2-/-14-14-14-14-14-14-14-14-/-16-16-16-16-16-16-16-16-/-12-12-12-12-12-|
C#|--------------------------------------------------------------------------------------|

D#|--------------------------------------|
Bb|--------------------------------------|
F#|--------------------------------------|
C#|-0--0h2-2-2-2-2-2-2-2-2-2-2-2-2-2-2-2-|
G#|-0--0h2-2-2-2-2-2-2-2-2-2-2-2-2-2-2-2-|
C#|-0--0h2-2-2-2-2-2-2-2-2-2-2-2-2-2-2-2-|

D#|--------------------------------------------------|
Bb|--------------------------------------------------|    (X4)
F#|-10--10-10--10/-12---12-12--12\-6--6-6--6-6-6-6-6-|
C#|-10--10-10--10/-12---12-12--12\-7--7-7--7-7-7-7-7-|
G#|-8---8--8---8-/-10---10-10--10\-5--5-5--5-5-5-5-5-|
C#|-8---8--8---8-/-10---10-10--10\-0--0-0--0-0-0-0-0-|

D#|-0--0--0--0----0--0--0--0-------------|
Bb|-0--0--0--0----0--0--0--0-------------|
F#|-0--0--0--0----0--0--0--0-------------|
C#|-7--7--7--7----7--7--7--7----2--2--2--|
G#|-5--5--5--5----5--5--5--5----2--2--2--|
C#|-0--0--0--0----0--0--0--0----2--2--2--|
Suggest correction
Give kudos to tab author, rate the tab!
1 2 3 4 5
comments
print report bad tab
guest
You may want to rate the tab now too:
select rating
Please do not post tabs as comments. Select "correction" instead!