Oops, an error
Loading. Please wait.

Wooden Boy bass

by Reuben
160 views 1 this week
1 commentread comment
1 2 3 4 5
3 more votes to show rating
add to favorites
×
Save as Personal and add changes to this tab that will be seen only by you. Learn more ›
×
You can save this tab as Personal to edit and correct it or add notes. All changes will be seen only by you. Learn more »
launch autoscroll
font size
0
reset
guitar tuner
edit
Autoscroll
slow
fast
+/-
esc
set tempo
stop
this is me tab for wooden boy, the quality of the actual song itself is not great but im 
confident that i got it nailed!
enjoy :)

|-------------------------------------|
|-------------------------------------|
|-777--777--77------------------------|
|------0-----0----0-333333-5555555555-| X2

|------------------------|
|------------------------|
|------------------------|
|-3333-3333-33-7777-8888-| X2

|-------------------------|
|-------------------------|
|-88888-77777-55555-33333-|
|-------------------------|

|-------------------------|
|-------------------------|
|-------------------------|
|-88888-77777-55555-33333-| X4

(0n the 4th time play
|-88888-77777-55555-3|

|-------------------------------------|
|-------------------------------------|
|-777--777--77------------------------|
|------0-----0----0-333333-5555555555-| X2

|------------------------|
|------------------------|
|------------------------|
|-3333-3333-33-7777-8888-| X2

|-----------------------------|
|-----------------------------|
|-----------------------------|
|-7h8p0-7--0-7h8p0-7--0-7h8p0-| X10

|-------------------------------------|
|-------------------------------------|
|-777--777--77------------------------|
|------0-----0----0-333333-5555555555-| X6

|--------------------------------------|
|--------------------------------------|
|--------------------------------------|
|-8r---7r---5r---3r---8r---7r---5------| X4

|----------------------------------|
|----------------------------------|
|----------------------------------|
|-10(play 10, 35 times)-1212121212-|

|-------------------------------------|
|-------------------------------------|
|-777--777--77------------------------|
|------0-----0----0-333333-5555555555-| X2

|------------------------|
|------------------------|
|------------------------|
|-3333-3333-33-7777-8888-| X2

h - hammer on
p - pull off
r - let it ring

TRUKLES
XXXXXXX

            
            
Suggest correction
Creating personal tab
Creating personal tab
You can edit any tab online and save it as your Personal.

You can edit, replace or remove any tab part or add personal notes – all changes will be seen only by you.

Personal tabs can be accessed anytime from any device, even offline.
Learn more »
Give kudos to tab author, rate the tab!
1 2 3 4 5
comments
print report bad tab
1 comment total.
0 reply
MadClownDisease 583 Jul 17, 2009 09:11 AM

Good effort, but I am fairly certain this is Drop C# for a start. Then again, where did you get your recording? There are various others bits not quite right according to what i can tell too, for example
|------------------------|
|------------------------|
|------------------------|
|-3333-3333-33-7777-8888-|
Should be
|------------------------|
|------------------------|
|------------------------|
|-0000-0000-00-3333-5555-|

guest
You may want to rate the tab now too:
select rating
Wanna post a correction for this tab? Suggest correction