Oops, an error
Loading. Please wait.

Hell Yeah bass

version 1
version 1

Whole song

Interactive

14,714 views 9 this week
2 commentsread comments
1 2 3 4 5
x 6
add to favorites
×
Save as Personal and add changes to this tab that will be seen only by you. Learn more ›
×
You can save this tab as Personal to edit and correct it or add notes. All changes will be seen only by you. Learn more »
launch autoscroll
font size
0
reset
guitar tuner
edit
Autoscroll
slow
fast
+/-
esc
set tempo
stop
Difficulty
intermediate
REV THEORY - 'HELL YEAH'

   Tuning: E string is tuned half a step down to Eb or it could be in "C"
       * = let it ring

       Intro

   G|-------------------------------------------------|
   D|-------------------------------------------------|
   A|-----------------------2-------------------------|
  Eb|--0*----0*-------0-----------3------5------------|


   G|----------------------------------------------|
   D|----------------------------------------------|
   A|------------2x6-----------------1x7-----------|
  Eb|--0x6---------------3x6------------------0----|

Intro to first verse

   G|--------------------------------|
   D|--------------------------------|
   A|--------------------------------|
  Eb|--0 0 3 0 6 5 3 0 x4------------|

Verse
   G|--------------------------------------------------------|
   D|--------------------------------------------------------|
   A|--------------------------------------------------------|
  Eb|---0 0 3 0 3 0 0 0 3 0 6 5 3 0-x4-----------------------|

   G|-----------------------------------------------------|
   D|-----------------------------------------------------|
   A|-----------------------------------11111-------------|
  Eb|---3 2 0-------3 2 33333333--------------------------|

Chorus
“Give me a hell……”

   G|--------------------------------------------------------|
   D|--------------------------------------------------------|
   A|--2x4------4x4------2x4--------4x4----------------------|
  Eb|-------3x4-----------------3x4--------------------------|
Chorus
“Get ready to go…….”
   G|------------------------------------------------------------------|
   D|------------------------------------------------------------------|
   A|-----------2x4----------4x4-----------2x4-------1111111-----------|
  Eb|--0x5-----------3x4----------0x5-----------------------------0----|

Bridge/solo
“HEY HEY HEY…….then play this
   G|-------------------------------------------------------|
   D|-------------------------------------------------------|
   A|-------------------------------------------------------|
  Eb|---0 3 0 6 5 3 0 x4------------------------------------|

ENDING

   G|----------------------------------------------------------------|
   D|----------------------------------------------------------------|
   A|----------2*-----------------------------2x6-------------1x7----|
  Eb|---0*-----------3*-------5*---- 0x6--------------0x6------------|

   G|--------------------------------------------------------|
   D|--------------------------------------------------------|
   A|----2 2----------4x6------------------------------------|
  Eb|---------3 3--------------------------------------------|

A lot is repeated on this song.  Hope this helps, this is my first time tabbing a song.  
should get you going.
Super fun song to play.........ENJOY!!

            
            
Suggest correction
Creating personal tab
Creating personal tab
You can edit any tab online and save it as your Personal.

You can edit, replace or remove any tab part or add personal notes – all changes will be seen only by you.

Personal tabs can be accessed anytime from any device, even offline.
Learn more »
comments
print report bad tab
2 comments total.
0 reply
nilschpilsch 213 Jun 07, 2011 01:10 AM

Tuning: Just the E string tuned a ½ step down isn't a very common tuning, perhaps the official tuning is all strings ½ step down.
Notes: It doesn't matter for the notes though, they are still correct, except for the 2nd '0x6'in the ending part. I believe it should be a F#/Gb (3), but that's just my opinion. I believe the numbers behind the notes are in line with the song, but this is a song that renders itself for improvised rhythms and stuff, so I didn't check it very accurately.
Structure: Every riff is in this tab, but the order in which they are to be played is missing. Not too hard to figure out by yourself, but a small list with the order of the riffs at the bottom of the tab would be a nice update.
Overall; 5/5* I'm not going to be picky in all the minor errors or things that seem uncommon to me.

Sorry for the long review :D I hope it's usefull.

+1 reply
sinlapse13 73 Dec 13, 2011 06:39 PM

hey does the x4 mean four times of the fourth fret?

guest
Wanna post a correction for this tab? Suggest correction