Oops, an error
Loading. Please wait.

Hell Yeah Tab

version 2
version 2

Whole song

34,929 views 27 this week
1 commentread comment
1 2 3 4 5
x 11
add to favorites
launch autoscroll
font size
0
reset
how to read this tab
guitar tuner
Autoscroll
slow
fast
+/-
esc
set tempo
stop
Help us to improve Ultimate-Guitar.com Take our survey!
×
Author
Tuning
D# G# C# F# A# D#
Tune down 1/2 step (Eb Ab Db Gb Bb eb)

     let ring         harmonics
D#|------|------|--7--------|--7---------|
A#|-10---|------|----7------|----7-------|
F#|------|------|------7----|------7-----|
C#|------|--2---|--------7--|--------7---| 
G#|------|--2---|-----------|------------|
D#|------|--0---|-----------|------------|

  [Intro]
D#|---------------------------------------|
A#|---------------------------------------|
F#|---------------------------------7--9--| play 8 times
C#|-------------------7-7-7--9-9-9--------| 
G#|--7-7-7--10-10-10----------------------|
D#|---------------------------------------|
 
  lead @ same time as intro (with wah pedal)
D#|-----|-------|-------|-----|----------------------------------|
A#|-----|-12----|-14----|-----|-------------------------------12-|
F#|-----|-12----|-14----|-14^-|-12-------------14-------------12-|
C#|-14--|----14-|----14-|-----|----14-14-14-14----14-14-14-14----| 
G#|-----|-------|-------|-----|----------------------------------|
D#|-----|-------|-------|-----|----------------------------------|

D#|----------------12---|
A#|-14-12-12-12-14-12---|
F#|-14-12-12-12-14-14^--|
C#|---------------------| 
G#|---------------------|
D#|---------------------|

  [Main riff]
D#|------------------------------------------------------------|
A#|------------------------------------------------------------|
F#|------------------------------------------------------------|
C#|-2-2-----------2-2-----------2-2-----------2-2-----------2--| play 2x
G#|-2-2-----------2-2-----------2-2-----------2-2-----2p0---2--|
D#|-0-0-3p0-5p0-0-0-0-3p0-5p0-0-0-0-3p0-5p0-0-0-0-3p0-----3-0--|

  play with main riff 2nd time
D#|------------------------|
A#|--------12----14-12-----|
F#|--------12----14-12-----| play 4x
C#|--14-14----14-------14--| 
G#|------------------------|
D#|------------------------|

  [Verse]
D#|-----------------------------------------------------------|
A#|-----------------------------------------------------------|
F#|-----------------------------------------------------------|
C#|-2-2-x-x-x-x-x-x-x-x-x-x-x-x--2-2-----------2-2------------| play 2x
G#|-2-2-x-x-x-x-x-x-x-x-x-x-x-x--2-2-----------2-2-----2p0----|
D#|-0-0-x-x-x-x-x-x-x-x-x-x-x-x--0-0-3p0-5p0-0-0-0-3p0-----3--|

D#|-----------------------------------------------------------|
A#|-----------------------------------------------------------|
F#|-----------------------------------------------------------|
C#|-2-2-x-x-x-x-x-x-x-x-x-x-x-x--2-2-x-x-x-x-x-x-x-x-x-x-x-x--| 
G#|-2-2-x-x-x-x-x-x-x-x-x-x-x-x--2-2-x-x-x-x-x-x-x-x-x-x-x-x--|
D#|-0-0-x-x-x-x-x-x-x-x-x-x-x-x--0-0-x-x-x-x-x-x-x-x-x-x-x-x--|

D#|----------------------------|
A#|----------------------------|
F#|------------------------4---|
C#|-5----------------------4---| 
G#|-5----------------------2---|
D#|-3--------------------------|

  harmonics
D#|-7---------7----------------|
A#|---7---------7-----7--------|
F#|-----7---------7------------|
C#|-------7---------7----------| 
G#|----------------------------|
D#|----------------------------|

  [Chorus]
D#|---------------|
A#|---------------|
F#|-5---------7---|
C#|-5----5----7---| play 2x
G#|-3----5----5---|
D#|------3--------|

D#|-------------------|--------------|
A#|-------------------|--------------|
F#|------5---------7--|------5----4--|
C#|-2----5----5----7--|-2----5----4--|
G#|-2----3----5----5--|-2----3----2--|
D#|-0---------3-------|-0------------|

D#|---------------------------------------------------------------|
A#|---------------------------------------------------------------|
F#|---------------------------------------------------------------|
C#|-2-2-x-x-x-x-x-x-x-x------------2-2-x-x-x-x-x-x-x-x------------| 
G#|-2-2-x-x-x-x-x-x-x-x------------2-2-x-x-x-x-x-x-x-x------------|
D#|-0-0-x-x-x-x-x-x-x-x-3p0-5p0-0--0-0-x-x-x-x-x-x-x-x-3p0-5p0-0--|

D#|---------------------------------------------------------------|
A#|---------------------------------------------------------------|
F#|---------------------------------------------------------------|
C#|-2-2-x-x-x-x-x-x-x-x------------2-2-x-x-x-x-x-x-x-x------------| 
G#|-2-2-x-x-x-x-x-x-x-x------------2-2-x-x-x-x-x-x-x-x-----2p0----|
D#|-0-0-x-x-x-x-x-x-x-x-3p0-5p0-0--0-0-x-x-x-x-x-x-x-x-3p0-----0--|

repeat verse with lead

D#|-------------------------------|------------------------|
A#|-12---15--12--15-12------------|------------------------|
F#|-14-^-----14^----14^-12----12--|--12----12-14-12----12--|
C#|------------------------14-----|-----14----------14-----| 
G#|-------------------------------|------------------------|
D#|-------------------------------|------------------------|

D#|--------12-------12-12---------14-15--------14-15----15----15----15-----|
A#|-----12----12-15^------15^~~~~~-----15^-~~~~------15----15----15----15--|
F#|-14^--------------------------------------------------------------------|
C#|------------------------------------------------------------------------| 
G#|------------------------------------------------------------------------|
D#|------------------------------------------------------------------------|

D#|-19----19----19----19---|
A#|----19----19----19------|
F#|------------------------|
C#|------------------------| 
G#|------------------------|
D#|------------------------|

repeat chorus

  [Solo]
D#|-----12-12-----12-12-----12-----12-12-12-------|
A#|-----12-12-----12-12-----12-----12-12-12-------|
F#|-14^-------14^-------14^----14^----------14^^--|
C#|-----------------------------------------------| 
G#|-----------------------------------------------|
D#|-----------------------------------------------|

D#|-15p12-------15p12-------15p12-------15p12-------15p12----------------|
A#|-------15p12-------15p12-------15p12-------15p12-------15p12--15-15^--|
F#|----------------------------------------------------------------------|
C#|----------------------------------------------------------------------| 
G#|----------------------------------------------------------------------|
D#|----------------------------------------------------------------------|

D#|-12-14-15-14h15p14p12-12h14p12----12------------------------------------|
A#|-------------------------------15----12h15p12----12---------------------|
F#|----------------------------------------------14----14-12-14^-14^p12-14-|
C#|------------------------------------------------------------------------| 
G#|------------------------------------------------------------------------|
D#|------------------------------------------------------------------------|

D#|-14^-14-14-12-----------|
A#|--------------12--------|
F#|-----------------14-12--|
C#|------------------------| 
G#|------------------------|
D#|------------------------|

[play intro 8 times]
      
         pm  pm    pm pm     pm  pm    pm pm      pm pm
D#|-----|-------------------|-------------------|--------------|
A#|-----|-------12----------|-------12----------|--------------|
F#|-----|-------12----------|-------12----------|-------12-11--|
C#|-14--|-14-14----14-14-14-|-14-14----14-14-14-|-14-14--------| 
G#|-----|-------------------|-------------------|--------------|
D#|-----|-------------------|-------------------|--------------|

D#|-12--12--12--12--12---15--15--15--15--15---17--17--17--17--17---19--|
A#|-15^-15^-15^-15^-15^--18^-18^-18^-18^-18^--20^-20^-20^-20^-20^--22^-|
F#|--------------------------------------------------------------------|
C#|--------------------------------------------------------------------| 
G#|--------------------------------------------------------------------|
D#|--------------------------------------------------------------------|

repeat chorus

  lead guitar at the end:
D#|-12-------------12----------------|-12-----------------15-------------|
A#|-15^--15p12h15--15^--15p12h15-----|-15^--15p12h15--15^----12h15p12----|
F#|-------------------------------14-|--------------------------------14-|
C#|----------------------------------|-----------------------------------| 
G#|----------------------------------|-----------------------------------|
D#|----------------------------------|-----------------------------------|

D#|-----------------------------------------------------------|
A#|-----------------------------------------------------------|
F#|-12-12-11-9-----12-12-11-9-----12-12-11-----12-12-11-9-----|
C#|------------12-------------12--------------------------12--| 
G#|-----------------------------------------------------------|
D#|-----------------------------------------------------------|

D#|-----------------------------14h15p14p12-15p14p12-------------------|
A#|--------------------------------------------------15p14p12-15p14p12-|
F#|-12-12-11-9-----12-12-11-9------------------------------------------|
C#|------------12-------------12---------------------------------------| 
G#|--------------------------------------------------------------------|
D#|--------------------------------------------------------------------|

D#|----------------------------|
A#|----------------------------|
F#|-12h14p12h14p12h14p12-------|
C#|----------------------14----| 
G#|----------------------------|
D#|----------------------------|

repeat main riff and lead guitar



************************************

| x  Dead note
| h  Hammer-on
| p  Pull-off
| ~  Vibrato

************************************
Suggest correction
comments
print report bad tab
1 comment total.
0 reply
InsaneDragon 10 Sep 27, 2008 01:41 PM

Your missing your PM's Btw
Good tab other wise.

guest
You may want to rate the tab now too:
select rating
Wanna post a correction for this tab? Suggest correction