Oops, an error
Loading. Please wait.

Light It Up Tab

version 1
version 1

Intro

Whole song

3,444 views 3 this week
3 commentsread comments
1 2 3 4 5
accurate
x 3
add to favorites
launch autoscroll
font size
0
reset
how to read this tab
guitar tuner
Tab Pro tools
  • play this tab
  • loop segment
  • change instrument
  • show fretboard
  • metronome
Autoscroll
slow
fast
+/-
esc
set tempo
stop
Difficulty
novice
standard tuning
This is my first tab. It's by revelation theory.I about 99% sure so you can tweek it as 
see fit.ENJOY!!

P.S-

light distortion

e--------------------------------------------------|
b--------------------------------------------------|
g--------------------------------------------------|
d--------------------------------------------------|
a--------------------------------------------0---0-|
e-0--6-5-0-3-5-0---6-5-0-3-5-0---6-5-0-3-5-22-222--|
comments
We did not receive enough feedback on this tab! Please rate:
print report bad tab
1 2 3 4 5
3 comments total.
+1 reply
HCOMustang wrote on April 19 2008, 07:49 pm

The song starts our with chords but the sound of what you have is somewhat right.

0 reply
brewer23 wrote on May 24 2008, 10:01 pm

Hey Chief...The tuning is in DROP C (CGCFAD).

0 reply
dkm817 wrote on October 17 2008, 08:01 pm

hey guys i know the guitar 1 and 2 to this song, but your tab isn't right, i will tab the whole thing but first here is the intro just for guitar 1

D------------------------------
A-----3-----3------3------3---3
F------------------------------
C-0-----------3------2--------- x4
G---0-----------3~-----2~---0--
C-------3~~--------------------

Can't wait til i tab the whole song! Well hope this helps!

I want to post or [tab]
guest
You may want to rate the tab now too:
select rating
Please do not post tabs as comments. Select "correction" instead!