Oops, an error
Loading. Please wait.

Purple Heart Shaped Pillow Tab

by Reverb
280 views 3 this week
2 commentsread comments
1 2 3 4 5
1 last vote to show rating
add to favorites
×
Save as Personal and add changes to this tab that will be seen only by you. Learn more ›
launch autoscroll
font size
0
reset
how to read this tab
guitar tuner
Autoscroll
slow
fast
+/-
esc
set tempo
stop
---------------------------------------------------------------------------
purple heart shaped pillow music written by Joseph Londesborough
lyrics by Tom Slater
                   Intro and verse tabs
E ----------------------------------------------------------------------|
B --------------------------0------------------------------------0------|
G ------0--------0--------0---0-----------0--------0----------0----0----|
D ----2--------3--------2-------2-------2--------3----------2--------2--|
A --3--------5--------2--------------3--------5----------2--------------|
E ----------------------------------------------------------------------|

                      Chords

 verse  C   D   Em   chorus    FAdd9 G FAdd9 G C G
Suggest correction
Give kudos to tab author, rate the tab!
1 2 3 4 5
comments
print report bad tab
2 comments total.
0 reply
Joe9O 15 Jun 02, 2004 08:00 PM

these tabs are slightly wrong but i sent you the correct version

0 reply
Joe9O 15 Jun 03, 2004 08:00 PM

this reverb tab is actually

E -------------------------------------------------------------------
B ---------------------------0-------------------------------0-------
G ----------0------0-------0---0------------0------0-------0---0-----
D -------2------4-------2--------2-------2------4-------2--------2---
A ----3------5-------2----------------3------5-------2---------------
E -------------------------------------------------------------------

guest
You may want to rate the tab now too:
select rating
Wanna post a correction for this tab? Suggest correction