Oops, an error
Loading. Please wait.

Caesar Forever tab

version 1
version 1

Whole song

Interactive

133 views 3 this week
no commentswrite comment
1 2 3 4 5
2 more votes to show rating
add to favorites
×
Save as Personal and add changes to this tab that will be seen only by you. Learn more ›
×
You can save this tab as Personal to edit and correct it or add notes. All changes will be seen only by you. Learn more »
launch autoscroll
font size
0
reset
how to read this tab
guitar tuner
edit
Autoscroll
slow
fast
+/-
esc
set tempo
stop
Author
-------------------------------------------------------------------------------
                       CAESAR FOREVER - Reverend Bizarre
-------------------------------------------------------------------------------
Tabbed by: Golgathor

Tuning: C# F# B E G# c#


INTRO
c#||--------------------------------------||
G#||--------------------------------------||
E ||--------------------------------------||
B ||-9--------------12--11----------------||
F#||-7--------------10--9-----------------||
C#||-7--------------10--9-----------------|| 4x


RIFF I
c#||-----------------------||
G#||-----------------------||
E ||-----------------------||
B ||-9---9-9--9---8--------||
F#||-7---7-7--10--9--------||
C#||-----------------------|| 4x

c#||--------------------||
G#||--------------------||
E ||--------------------||
B ||-9------------------||
F#||--------9--8--------||
C#||--------------------|| 2x

c#||--------------------||
G#||--------------------||
E ||--------------------||
B ||-6------------------||
F#||--------6--5--------||
C#||--------------------|| 2x

c#||--------------------||
G#||--------------------||
E ||--------------------||
B ||-5------------------||
F#||--------5--4--------||
C#||--------------------|| 2x

c#||--------------------||
G#||--------------------||
E ||--------------------||
B ||--------------------||
F#||-7------------------||
C#||--------7--6--------|| 2x


VERSE 1
c#||-----------------------------------------------------------------------||
G#||-----------------------------------------------------------------------||
E ||-----------------------------------------------------------------------||
B ||-9--------7--------9----------------9--------7--------4----------------||
F#||-7--------5--------7----------------7--------5--------2----------------||
C#||-----------------------------------------------------------------------|| 4x
Here I wait in the shadows,             Raise my two bloody hands
In the center of a circle,              Bodies join in deadly dance
I have killed with my brothers,         By my hand the weak must die
We'll leave a trail of lonely mothers,  Who mourn their martyrs side by side


RIFF I
c#||-----------------------||
G#||-----------------------||
E ||-----------------------||
B ||-9---9-9--9---8--------||
F#||-7---7-7--10--9--------||
C#||-----------------------|| 4x

c#||--------------------||
G#||--------------------||
E ||--------------------||
B ||-9------------------||
F#||--------9--8--------||
C#||--------------------|| 2x

c#||--------------------||
G#||--------------------||
E ||--------------------||
B ||-6------------------||
F#||--------6--5--------||
C#||--------------------|| 2x

c#||--------------------||
G#||--------------------||
E ||--------------------||
B ||-5------------------||
F#||--------5--4--------||
C#||--------------------|| 2x

c#||--------------------||
G#||--------------------||
E ||--------------------||
B ||--------------------||
F#||-7------------------||
C#||--------7--6--------|| 2x


VERSE 2
c#||-----------------------------------------------------------------------||
G#||-----------------------------------------------------------------------||
E ||-----------------------------------------------------------------------||
B ||-9--------7--------9----------------9--------7--------4----------------||
F#||-7--------5--------7----------------7--------5--------2----------------||
C#||-----------------------------------------------------------------------|| 4x
The ruler of this holy city,            Respected till the end of time
Reluctant to show his pity,             When religion turns to crime
They believed in the virgin mother,     For that they must be crucified
They cannot love any other,             Elder gods they left behind


RIFF I
c#||-----------------------||
G#||-----------------------||
E ||-----------------------||
B ||-9---9-9--9---8--------||
F#||-7---7-7--10--9--------||
C#||-----------------------|| 4x
Oh yeah!

c#||--------------------||
G#||--------------------||
E ||--------------------||
B ||-9------------------||
F#||--------9--8--------||
C#||--------------------|| 2x

c#||--------------------||
G#||--------------------||
E ||--------------------||
B ||-6------------------||
F#||--------6--5--------||
C#||--------------------|| 2x

c#||--------------------||
G#||--------------------||
E ||--------------------||
B ||-5------------------||
F#||--------5--4--------||
C#||--------------------|| 2x

c#||--------------------||
G#||--------------------||
E ||--------------------||
B ||--------------------||
F#||-7------------------||
C#||--------7--6--------|| 2x


RIFF III
c#||-----------------------------------------------------------------|
G#||-----------------------------------------------------------------|
E ||-----------------------------------------------------------------|
B ||-9-9-9-9-9-9-9-9-7-7-7-7-7-7-7-7-5-5-5-5-5-5-5-5-4-4-4-4-4-4-4-4-|
F#||-7-7-7-7-7-7-7-7-5-5-5-5-5-5-5-5-3-3-3-3-3-3-3-3-2-2-2-2-2-2-2-2-|
C#||-----------------------------------------------------------------|

c#|-------------------------------------------------------||
G#|-------------------------------------------------------||
E |-------------------------------------------------------||
B |-2-2-2-2-2-2-2-4----------------------4-5--5--4--------||
F#|-0-0-0-0-0-0-0-2-2-2-2-2-2-2-2-4-5--5-2-3--3--2--------||
C#|-----------------0-0-0-0-0-0-0-2-3--3------------------|| 2x


RIFF II
c#||---------------------------------------------------------||
G#||---------------------------------------------------------||
E ||---------------------------------------------------------||
B ||-9--9-9-9--9-9-7--7-7-7--7-7-9--9-9-9--9-9-9--9-9-9--9-9-||
F#||-7--7-7-7--7-7-5--5-5-5--5-5-7--7-7-7--7-7-7--7-7-7--7-7-||
C#||---------------------------------------------------------|| 2x


VERSE 3
c#||---------------------------------------------------------||
G#||---------------------------------------------------------||
E ||---------------------------------------------------------||
B ||-9--9-9-9--9-9-7--7-7-7--7-7-9--9-9-9--9-9-9--9-9-9--9-9-||
F#||-7--7-7-7--7-7-5--5-5-5--5-5-7--7-7-7--7-7-7--7-7-7--7-7-||
C#||---------------------------------------------------------|| 3x
Those who are about to die make sure that you will learn
Trumpets sing and children cry when fires of Mars will burn
Christs may come and Christs may go but Caesar is forever

c#|----------------------------------------------------------|
G#|----------------------------------------------------------|
E |----------------------------------------------------------|
B |-9--9-9-9--9-9-7--7-7-7--7-7-9--9-9-9--9-9-9--9-7-9--12\--|
F#|-7--7-7-7--7-7-5--5-5-5--5-5-7--7-7-7--7-7-7--7-5-7-------|
C#|----------------------------------------------------------|
Come my son and you shall know tonight we hunt together


SOLO
(Rhythm plays Riff III 2x)
c#|-----------------------------------------------------|
G#|-----------------------------------------------------|
E |----------------/9-9~~9-7~~~-/5-5--5-4---------------|
B |-2/5-5-7-/9~~~~------------------------5-7-/9~~~~~~~-|
F#|-----------------------------------------------------|
C#|-----------------------------------------------------|

c#|--------------------------------------------------------------|
G#|-/10------10/12-13\12------------12--12/13-13--15b--16--------|
E |--------------------------/12-14------------------------------|
B |--------------------------------------------------------------|
F#|--------------------------------------------------------------|
C#|--------------------------------------------------------------|

c#|-------------------------------------------------------------------------|
G#|----------------------------------------13-13--13-12-10/12---------------|
E |-12---11h12p11--------12b-12pb-12br--~~~-------------------11tr12--------|
B |---------------14--------------------------------------------------------|
F#|-------------------------------------------------------------------------|
C#|-------------------------------------------------------------------------|

c#|-----------------------------------------12--18b--19--------|
G#|-10------10/12-13\12-----------12--12/13--------------------|
E |-------------------------12-14------------------------------|
B |------------------------------------------------------------|
F#|------------------------------------------------------------|
C#|------------------------------------------------------------|


VERSE 3 REPRISE
c#||---------------------------------------------------------||
G#||---------------------------------------------------------||
E ||---------------------------------------------------------||
B ||-9--9-9-9--9-9-7--7-7-7--7-7-9--9-9-9--9-9-9--9-9-9--9-9-||
F#||-7--7-7-7--7-7-5--5-5-5--5-5-7--7-7-7--7-7-7--7-7-7--7-7-||
C#||---------------------------------------------------------|| 3x
Christs may come and Christs may go but Caesar is forever
Come my son and you shall know tonight we hunt together
Christs may come and Christs may go but Caesar is forever

c#|----------------------------------------------------------------|
G#|----------------------------------------------------------------|
E |----------------------------------------------------------------|
B |-9--9-9-9--9-9-7--7-7-7--7-7-9--9-9-9--9-9-9--9-7-9--12--9------|
F#|-7--7-7-7--7-7-5--5-5-5--5-5-7--7-7-7--7-7-7--7-5-7--10--7------|
C#|----------------------------------------------------------------|
Come my son and you shall know tonight we hunt together


OUTRO
c#||----------------------------------------------------------------||
G#||----------------------------------------------------------------||
E ||------------9-7-9----------------9-7-9--------------------------||
B ||-9-7-9-------------9--7--/9-------------9--7--/9--6-4-6--9------||
F#||----------------------------------------------------------------||
C#||----------------------------------------------------------------|| 8x



************************************

| /   slide up
| \   slide down
| h   hammer-on
| p   pull-off
| ~   vibrato
| +   harmonic
| x   Mute note
| b   Bend
| pb  Pre-bend
| br  Bend release
| pbr Pre-bend release
| brb Bend release bend
| tr  Trill

************************************
Suggest correction
Creating personal tab
Creating personal tab
You can edit any tab online and save it as your Personal.

You can edit, replace or remove any tab part or add personal notes – all changes will be seen only by you.

Personal tabs can be accessed anytime from any device, even offline.
Learn more »
Give kudos to tab author, rate the tab!
1 2 3 4 5
comments
print report bad tab
guest
You may want to rate the tab now too:
select rating
Wanna post a correction for this tab? Suggest correction