Oops, an error
Loading. Please wait.

Its Martini Time tab

version 1
version 1

Whole song

499 views 1 this week
no commentswrite comment
1 2 3 4 5
3 more votes to show rating
add to favorites
×
Save as Personal and add changes to this tab that will be seen only by you. Learn more ›
×
You can save this tab as Personal to edit and correct it or add notes. All changes will be seen only by you. Learn more »
launch autoscroll
font size
0
reset
how to read this tab
guitar tuner
edit
Autoscroll
slow
fast
+/-
esc
set tempo
stop
Author
-------------------------------------------------------------------------------
                              "It’s Martini Time"
                             Reverend Horton Heat
-------------------------------------------------------------------------------
Song:      It’s Martini Time
Artist:    Reverend Horton Heat
Album:     It’s Martini Time (1996)
Guitarist: Jim Heath
Transcribed by: Phil Trujeque
E-mail: Phil@Trujeque.com
http://www.youtube.com/user/thephilth

Standard Tuning

Intro

  C#              F#              B               E
E|-----------------------------|--------------------------------|| GTR I
B|-----9--12---9/11------------|--------7--10---7/9-------------||
G|---9----------------11-------|-----7----------------9---------||
D|11----------------------13\--|--9-----------------------11\---||
A|-----------------------------|--------------------------------||
E|-----------------------------|--------------------------------||
 |                             |                                ||
 |C#7sus4         F#6          |  B7sus4          E6            ||
E|9---------------11-----------|--7---------------9-------------|| GTR II
B|12--------------11-----------|--10--------------9-------------||
G|11--------------11-----------|--9---------------9-------------||
D|-----------------------------|--------------------------------||
A|----------------9------------|------------------7-------------||
E|9----------------------------|--7-----------------------------||


  C#              F#              B               E
E|------------------------14\--|--------------------------12\---||
B|-----9--12--9-/-11-----------|--------7--10---7/9-------------||
G|---9----------------11-------|-----7----------------9---------||
D|11---------------------------|--9-----------------------------||
A|-----------------------------|--------------------------------||
E|-----------------------------|--------------------------------||
 |                             |                                ||
 |C#7sus4         F#6          |  B7sus4          E6            ||
E|9---------------11-----------|--7---------------9-------------||
B|12--------------11-----------|--10--------------9-------------||
G|11--------------11-----------|--9---------------9-------------||
D|-----------------------------|--------------------------------||
A|----------------9------------|------------------7-------------||
E|9----------------------------|--7-----------------------------||


  C#              F#              B               E
E|---------------------------11|--14------13--12-------12--10/12||
B|-----9--12--9-/-11-------12--|--------------------------------||
G|---9----------------11-11----|------11------------------------||
D|11---------------------------|--------------------------------||
A|-----------------------------|--------------------------------||
E|-----------------------------|--------------------------------||
 |                             |                                ||
 |C#7sus4         F#6          |  B7sus4          E6            ||
E|9---------------11-----------|--7---------------9-------------||
B|12--------------11-----------|--10--------------9-------------||
G|11--------------11-----------|--9---------------9-------------||
D|-----------------------------|--------------------------------||
A|----------------9------------|------------------7-------------||
E|9----------------------------|--7-----------------------------||


  A
E|9----------------------------|--------------------------------||
B|-----10-----10---------------|(10)----------------------------||
G|-----------------------------|--------------------------------||
D|-----------------------------|--------------------------------||
A|-----------------------------|--------------------------------||
E|-----------------------------|--------------------------------||
 |                             |                                ||
 |                     A6      |                                ||
E|---------------------5-------|--------------------------------||
B|---------------------7-------|--------------------------------||
G|---------------------6-------|--------------------------------||
D|---------------------7-------|--------------------------------||
A|-----------------------------|--------------------------------||
E|-----------------------------|--------------------------------||
                   Vol. Swell

                                      
E|17\--------------------------|--------------------------------||
B|-----------------------------|--------------------------------||
G|-----------------------------|--------------------------------||
D|-----------------------------|--------------------------------||
A|-----------------------------|--------------------------------||
E|-----------------------------|--------------------------------||
 |                             |                                ||
 |                             |     A7                         ||
E|-----------------------------|----/9----(9)-------------------||
B|-----------------------------|---//8----(8)-------------------||
G|-----------------------------|---//9----(9)-------------------||
D|-----------------------------|---//7----(7)-------------------||
A|-----------------------------|--------------------------------||
E|-----------------------------|--------------------------------||
                                Raise chord to pitch with Bigsby 
         "It's Martini Time!"
*******************************************************************************
  A6
E|5-------------------------------|5-------------------------------|| Play 2x's
B|7-------------------------------|7-------------------------------||
G|6-------------------------------|6-------------------------------|| 
D|7-------------------------------|7-------------------------------||   
A|---0---0---0---0---0---0---0---0|---0---0---0---0---0---0---0---0||  
E|5---3---2---1-/-5---3---2---1---|5---3---2---1-/-5---3---2---1---||
 |Hiccup                          |Hiccup                          ||                
 |                                |                                ||
E|5-------------------------------|5-------------------------------||
B|7-------------------------------|7-------------------------------||
G|6-------------------------------|6-------------------------------|| 
D|7-------------------------------|7-------------------------------||   
A|--------------------------------|--------------------------------||  
E|--------------------------------|--------------------------------||

*********************************************************************
Verse I

  A
E|--------------------------------|--------------------------------||
B|--------------------------------|--------------------------------||
G|--------------------------------|--------------------------------||
D|--------------------------------|--------------------------------||
A|---0---0---0---0---0---0---0---0|---0---0---0---0---0---0---0---0||
E|5---5---5---5---5---5---5---5---|5---3---2---1-/-5---3---2---1---||
 |                                |                                ||
 |                                |                                ||
E|4/5-----------------------------|--------5-----------------------|| 
B|4/5-----------------------------|---5----5-------7---4/5---------||
G|5/6-----------------------------|---5h6--6-------6---5/6---------||
D|6/7-----------------------------|--------7-------7---6/7---------||
A|--------------------------------|--------------------------------||
E|--------------------------------|--------------------------------||
  Hey buddy do you got the time?

  A
E|--------------------------------|--------------------------------||
B|--------------------------------|--------------------------------||
G|--------------------------------|--------------------------------||
D|--------------------------------|--------------------------------||
A|---0---0---0---0---0---0---0---0|---0---0---0---0---0---0---0---0||
E|5---5---5---5---5---5---5---5---|5---3---2---1-/-5---3---2---1---||
 |                                |                                ||
 |                                |                                ||
E|4/5-----------------------------|8/9-----4/5---------------------|| 
B|4/5-----------------------------|9/10----4/5-----4/5----7---5----||
G|5/6-----------------------------|8/9-----5/6-----5/6----7---6----||
D|6/7-----------------------------|----------------6/7----7---7----||
A|--------------------------------|--------------------------------||
E|--------------------------------|--------------------------------||
  No, I don't got a watch. 
              Can you spare a dime?
                                   A       C#o     D9        Eb9
E|--------------------------------|-----------------------------------||
B|--------------------------------|-----------------------------------||
G|--------------------------------|-----------------------------------||
D|--------------------------------|-----------------------------------||
A|---0---0---0---0---0---0---0---0|-----------------------------------||
E|5---5---5---5---5---5---5---5---|5-5-0-0-9-9-0-0-10-10-0-0-11-11-0-0||
 |                                |                                   ||
 |                                |                                   ||
E|--------------------------------|5-------9-------10--------11-------|| 
B|--------------------------------|5-------8-------7---------8--------||
G|--------------------------------|6-------9-------9---------10-------||
D|--------------------------------|7-------7-------10--------11-------||
A|--------------------------------|-----------------------------------||
E|--------------------------------|-----------------------------------||
  No, but I got two olives
             and a couple of limes...                  Guess what that...
                                                       
  E7                               A6
E|--------------------------------|5-------------------------------||
B|--------------------------------|7-------------------------------||
G|13------------------------------|6-------------------------------||
D|12------------------------------|7-------------------------------||
A|11------------------------------|--------------------------------||
E|12------------------------------|--------------------------------||
 |                                |                                ||
 |E9                              |                                ||
E|12-----------------------------/|5-------------------------------|| 
B|9------------------------------/|7-------------------------------||
G|11-----------------------------/|6-------------------------------||
D|12-----------------------------/|7-------------------------------||
A|--------------------------------|--------------------------------||
E|--------------------------------|--------------------------------||
  Means...                 it's martini time.                   
                                                               
*********************************************************************
  A6
E|5-------------------------------|5-------------------------------||
B|7-------------------------------|7-------------------------------||
G|6-------------------------------|6-------------------------------|| 
D|7-------------------------------|7-------------------------------||   
A|---0---0---0---0---0---0---0---0|---0---0---0---0---0---0---0---0||  
E|5---3---2---1-/-5---3---2---1---|5---3---2---1-/-5---3---2---1---||
 |Hiccup                          |Hiccup                          ||                
 |                                |                                ||
E|5-------------------------------|5-------------------------------||
B|7-------------------------------|7-------------------------------||
G|6-------------------------------|6-------------------------------|| 
D|7-------------------------------|7-------------------------------||   
A|--------------------------------|--------------------------------||  
E|--------------------------------|--------------------------------||

*********************************************************************
Verse II

  A
E|--------------------------------|--------------------------------||
B|--------------------------------|--------------------------------||
G|--------------------------------|--------------------------------||
D|--------------------------------|--------------------------------||
A|---0---0---0---0---0---0---0---0|---0---0---0---0---0---0---0---0||
E|5---5---5---5---5---5---5---5---|5---3---2---1-/-5---3---2---1---||
 |                                |                                ||
 |                                |                                ||
E|--------------------------------|--------------------9-----------|| 
B|--------------------------------|-----------10---9---10----7---6/||
G|--------------------------------|------9h11-11---10--------6---5/||
D|--------------------------------|-10h11--------------------7---6/||
A|--------------------------------|--------------------------------||
E|--------------------------------|--------------------------------||
  Tee martoonies
          at brunch with the loss.

  A
E|--------------------------------|--------------------------------||
B|--------------------------------|--------------------------------||
G|--------------------------------|--------------------------------||
D|--------------------------------|--------------------------------||
A|---0---0---0---0---0---0---0---0|---0---0---0---0---0---0---0---0||
E|5---5---5---5---5---5---5---5---|5---3---2---1-/-5---3---2---1---||
 |                                |                                ||
 |                                |                                ||
E|--------------------------------|--------------------------------|| 
B|7-------------------------------|14--------------11--10-/11--10-/||
G|6-------------------------------|14--16--14------11--10-/11--10-/||
D|7-------------------------------|----16--14------12--11-/12--11-/||
A|--------------------------------|----------14\12-----------------||
E|--------------------------------|--------------------------------||
  I didn't even ask
           or care what they cost.

E|--------------------------------|-----------------------------------||
B|--------------------------------|-----------------------------------||
G|--------------------------------|-----------------------------------||
D|--------------------------------|-----------------------------------||
A|---0---0---0---0---0---0---0---0|-----------------------------------||
E|5---5---5---5---5---5---5---5---|5-5-0-0-9-9-0-0-10-10-0-0-11-11-0-0||
 |                                |                                   ||
 |                                |                                   ||
E|--------------------------------|--------9-------10--------11----11-|| 
B|10------------------------------|---5h7--8-------7---------8-----8--||
G|10------------------------------|6----------------------------------||
D|11------------------------------|-----------------------------------||
A|--------------------------------|-----------------------------------||
E|--------------------------------|-----------------------------------||
  I lost my job
         for no reason or rhyme...                      Guess what that...
                                                       
  E7                               A6
E|--------------------------------|5-------------------------------||
B|--------------------------------|7-------------------------------||
G|13------------------------------|6-------------------------------||
D|12------------------------------|7-------------------------------||
A|11------------------------------|--------------------------------||
E|12------------------------------|--------------------------------||
 |                                |                                ||
 |                                |                                ||
E|12------------------------------|5--------------------------/----|| 
B|9-------------------------------|7--------------------------/----||
G|--------------------------------|6--------------------------/----||
D|--------------------------------|7--------------------------/----||
A|--------------------------------|--------------------------------||
E|--------------------------------|--------------------------------||
  Means...                 it's martini time.                   
                                                               "Mar---"
***********************************************************************
Chorus

  D9                              C7
E|10--10--10--10--10--10--10--10-|8---8---8---8---8---8---8---8--||
B|7---7---7---7---7---7---7---7--|11--11--11--11--11--11--11--11-||
G|9---9---9---9---9---9---9---9--|9---9---9---9---9---9---9---9--||
D|10--10--10--10--10--10--10--10-|10--10--10--10--10--10--10--10-||
A|-------------------------------|-------------------------------||
E|-------------------------------|-------------------------------||
 |                               |                               ||
 |                               |                               ||
E|10-------------10----5---10/10\|8----------------8---8---8--/8\|| 
B|10-------------10----7---10/10\|8----------------8---8---8--/8\||
G|11-------------11----7---11/11\|9----------------9---9---9--/9\||
D|12-------------------------/12\|10-----------------------------||
A|-------------------------------|-------------------------------||
E|-------------------------------|-------------------------------||
--tini time...                 Martini time....
                 (vodka ice shaker!)             (olive or lime!)


  Bb7                            C#7       F#7      B7       E7
E|6---6---6---6---6---6---6---6--|9---------9--------7--------7--||
B|9---9---9---9---9---9---9---9--|9---------11-------7--------9--||
G|7---7---7---7---7---7---7---7--|10--------9--------8--------7--||
D|8---8---8---8---8---8---8---8--|9---------11-------7--------9--||
A|-------------------------------|11--------9--------9--------7--||
E|-------------------------------|9------------------7-----------||
 |                               |                               ||
 |                               |                               ||
E|6---------------6-------6------|-------------------------------|| 
B|6---------------6-------6------|-------------------------------||
G|7---------------7-------7------|-------------------------------||
D|8------------------------------|-------------------------------||
A|-------------------------------|-------------------------------||
E|-------------------------------|-------------------------------||
Martini time....                  Make it with a layer of ice this time.
                 (gotta have glasses!)

*************************************************************************
Break

  A6
E|5-------------------------------|5-------------------------------||
B|7-------------------------------|7-------------------------------||
G|6-------------------------------|6-------------------------------|| 
D|7-------------------------------|7-------------------------------||   
A|---0---0---0---0---0---0---0---0|---0---0---0---0---0---0---0---0||  
E|5---3---2---1-/-5---3---2---1---|5---3---2---1-/-5---3---2---1---||
 |                                |Hiccup                          ||                
 |                                |                                ||
E|5-------------------------------|5-------------------------------||
B|7-------------------------------|7-------------------------------||
G|6-------------------------------|6-------------------------------|| 
D|7-------------------------------|7-------------------------------||   
A|--------------------------------|--------------------------------||  
E|--------------------------------|--------------------------------||

*********************************************************************
Verse III

  A
E|--------------------------------|--------------------------------||
B|--------------------------------|--------------------------------||
G|--------------------------------|--------------------------------||
D|--------------------------------|--------------------------------||
A|---0---0---0---0---0---0---0---0|---0---0---0---0---0---0---0---0||
E|5---5---5---5---5---5---5---5---|5---3---2---1-/-5---3---2---1---||
 |                                |                                ||
 |                                |                                ||
E|--------------------------------|5v----------------------5-------|| 
B|--------------------------------|5v------7---5---5v------5---5v--||
G|--------------------------------|6v------6---6---6v------6---6v--||
D|--------------------------------|7v------7---7---7v----------7v--||
A|--------------------------------|--------------------------------||
E|--------------------------------|--------------------------------||
  Dirty, dry up, or in between.

  A
E|--------------------------------|--------------------------------||
B|--------------------------------|--------------------------------||
G|--------------------------------|--------------------------------||
D|--------------------------------|--------------------------------||
A|---0---0---0---0---0---0---0---0|---0---0---0---0---0---0---0---0||
E|5---5---5---5---5---5---5---5---|5---3---2---1-/-5---3---2---1---||
 |                                |                                ||
 |                                |                                ||
E|--------------------------------|9-v-------------5v--------------|| 
B|--------------------------------|10v-----10--10--5v-----7----5v--||
G|--------------------------------|--------11--9---6v-----6----6v--||
D|--------------------------------|----------------7v-----7----7v--||
A|--------------------------------|--------------------------------||
E|--------------------------------|--------------------------------||
  From the very first sip 
        you'll know what I mean.

E|--------------------------------|-----------------------------------||
B|--------------------------------|-----------------------------------||
G|--------------------------------|-----------------------------------||
D|--------------------------------|-----------------------------------||
A|---0---0---0---0---0---0---0---0|-----------------------------------||
E|5---5---5---5---5---5---5---5---|5-5-0-0-9-9-0-0-10-10-0-0-11-11-0-0||
 |                                |                                   ||
 |                                |                                   ||
E|5-------------------------------|5v------9-------10--------11-11----|| 
B|7-------------------------------|5v------8-------7---------8--8-----||
G|6-------------------------------|6v------9-------9---------10-10----||
D|7-------------------------------|7v------7-------10--------11-11----||
A|--------------------------------|-----------------------------------||
E|--------------------------------|-----------------------------------||
  When you're out with a babe 
        you don't nickel or dime.                      Guess what that...
                                                       
  E7                               A6
E|--------------------------------|5-------------------------------||
B|--------------------------------|7-------------------------------||
G|13------------------------------|6-------------------------------||
D|12------------------------------|7-------------------------------||
A|11------------------------------|--------------------------------||
E|12------------------------------|--------------------------------||
 |                                |                                ||
 |                                |                                ||
E|12------------------------------|-------------------------------/|| 
B|9-------------------------------|-------------------------------/||
G|11------------------------------|-------------------------------/||
D|12------------------------------|-------------------------------/||
A|--------------------------------|--------------------------------||
E|--------------------------------|--------------------------------||
  Means...                 it's martini time.                   
                                                               "Mar---"
***********************************************************************
Chorus

  D9                              C7
E|10--10--10--10--10--10--10--10-|8---8---8---8---8---8---8---8--||
B|7---7---7---7---7---7---7---7--|11--11--11--11--11--11--11--11-||
G|9---9---9---9---9---9---9---9--|9---9---9---9---9---9---9---9--||
D|10--10--10--10--10--10--10--10-|10--10--10--10--10--10--10--10-||
A|-------------------------------|-------------------------------||
E|-------------------------------|-------------------------------||
 |                               |                               ||
 |                               |                               ||
E|10--------------------------10\|8-------------------8---8---8--|| 
B|10--------------------------10\|8-------------------8---10--10-||
G|11--------------------------11\|9-------------------9---9---8--||
D|12--------------------------12\|10------------------10--10--10-||
A|-------------------------------|-------------------------------||
E|-------------------------------|-------------------------------||
--tini time...                 Martini time....
                 (vodka ice shaker!)             (olive or lime!)


  Bb7                            C#7       F#7      B7       E7
E|6---6---6---6---6---6---6---6--|9---------9--------7--------7---||
B|9---9---9---9---9---9---9---9--|9---------11-------7--------9---||
G|7---7---7---7---7---7---7---7--|10--------9--------8--------7---||
D|8---8---8---8---8---8---8---8--|9---------11-------7--------9---||
A|-------------------------------|11--------9--------9--------7---||
E|-------------------------------|9------------------7------------||
 |                               |                                ||
 |Bb6                            |                                ||
E|6------------------------------|--------------------------------|| 
B|8------------------------------|--------------------------------||
G|7------------------------------|--------------------------------||
D|9------------------------------|--------------------------------||
A|-------------------------------|--------------------------------||
E|-------------------------------|--------------------------------||
Martini time....                  Make it with a layer of ice this time.
                 (gotta have glasses!)

*************************************************************************
Break

  A6
E|5-------------------------------|5-------------------------------||
B|7-------------------------------|7-------------------------------||
G|6-------------------------------|6-------------------------------|| 
D|7-------------------------------|7-------------------------------||   
A|---0---0---0---0---0---0---0---0|---0---0---0---0---0---0---0---0||  
E|5---3---2---1-/-5---3---2---1---|5---3---2---1-/-5---3---2---1---||
 |Hiccup                          |Hiccup                          ||                
 |                                |                                ||
E|5-------------------------------|5-------------------------------||
B|7-------------------------------|7------------------------------7||
G|6-------------------------------|6------------------------------6|| 
D|7-------------------------------|7------------------------------7||   
A|--------------------------------|--------------------------------||  
E|--------------------------------|--------------------------------||
                                                            Go!!!
*************************************************************************
Solo

E|------------------------------------|--------------------------------||
B|------------------------------------|--------------------------------||
G|-------------0-----------------0----|--------------------------------||
D|--------0-4h5----0--------0-4h5----0|--------------------------------||
A|---0-4h5------4h5----0-4h5------4h5-|---0---0---0---0---0---0---0---0||
E|4h5---------------4h5---------------|5---3---2---1-/-5---3---2---1---||
 |                                    |                                ||
 |                                    |                                ||
E|------------------5-----------------|--------------5-----------------|| 
B|/7----------------5-----5---5-----7v|7-------------5-----5-----------||
G|/6----------------6-----6---6-----6v|6-------------6-----6-----------||
D|/7----------------------7---7-----7v|6-------------------7-----------||
A|------------------------------------|--------------------------------||
E|------------------------------------|--------------------------------||


    E|----------8-9p8--------------17\|--------------------------------||
    B|7-10-9p7-------10--7-10-9p7-9---|--------------------------------||
    G|--------9---------9-------------|--------------------------------||
    D|--------------------------------|--------------------------------||
    A|--------------------------------|---0---0---0---0---0---0---0---0||
    E|--------------------------------|5---3---2---1-/-5---3---2---1---||
     |                                |                                ||
     |                                |                                ||
    E|--------------------------------|9-v-------------5v--------------|| 
    B|--------------------------------|10v-----10--10--5v-----7----5v--||
    G|--------------------------------|--------11--9---6v-----6----6v--||
    D|--------------------------------|----------------7v-----7----7v--||
    A|--------------------------------|--------------------------------||
    E|--------------------------------|--------------------------------||


  A        A7      Cadd9    C#add9
E|5\------/9\------/10\------/11\|5--5-5---9---10--10--11--11-11-||
B|5\------/8\------/7-\------/8-\|5--5-5---8---7---7---8---8--8--||
G|6\------/9\------/9-\------/10\|6--6-6---9---9---9---10--10-10-||
D|7\------/7\------/10\------/11\|7--7-7---7---10--10--11--11-11-||
A|-------------------------------|-------------------------------||
E|-------------------------------|-------------------------------||

                    E9
                  E|12---/12--/12---9----------12-12||
                  B|9-----------------10---10-------||
                  G|11------------------------------||
                  D|12------------------------------||
                  A|--------------------------------||
                  E|--------------------------------||

  D                                C
E|10--8-------8-10-8--------------|--------------------------------11-12\||
B|------10--10------10-8----------|----------------------8-10-11-12------||
G|-----------------------11--10-10|----7h9p7--7-9-10-9-10----------------||
D|--------------------------------|8-10----------------------------------||
A|--------------------------------|--------------------------------------||
E|--------------------------------|--------------------------------------||
 |                                |                                      ||
 |                                |                                      ||
E|-------/10----------------------|-----------------------------------8--|| 
B|-------/10-------------------10\|8--------------------------8-------10-||
G|-------/11-------------------11\|9--------------------------9-------8--||
D|-------/12-------------------12\|10-------------------------10------10-||
A|--------------------------------|--------------------------------------||
E|--------------------------------|--------------------------------------||

                                   C#        F#           B        E
E|--------------------------------|----------------------14----15--16\--/12-/12||
B|--------------------------------|----10-12---11---12-------12----------------||
G|---7-9---7-10---7-9---7-10---7-9|--10------11---11---11----------------------||
D|/8-----8------8-----8------8----|11------------------------------------------||
A|--------------------------------|--------------------------------------------||
E|--------------------------------|--------------------------------------------||
 |                                |                                            ||
 |                                |                                            ||
E|6-------------------------------|9--------/14-\------------------------------|| 
B|8-------------------------------|9--------/14-\---------7---------9----------||
G|7-------------------------------|10-------/15-\---------8---------9----------||
D|8-------------------------------|11-------/16-\---------9---------9----------||
A|--------------------------------|--------------------------------------------||
E|--------------------------------|--------------------------------------------||


  A6     ~~~~~~~~~~~~~~~~~~~~~~~~~     <       >
E|9-------------------------------|----/9----(9)\------------------||
B|--10--10------------------------|---//8----(8)-\-----------------||
G|--------------------------------|---//9----(9)\-\----------------||
D|--------------------------------|---//7----(7)-\-\---------------||
A|--------------------------------|---/-----------\----------------||
E|--------------------------------|--------------------------------||
                                (Spoken:) "It's martini time!"
*********************************************************************
Break

  A6
E|5-------------------------------|5-------------------------------|| Play 2x's
B|7-------------------------------|7-------------------------------||
G|6-------------------------------|6-------------------------------|| 
D|7-------------------------------|7-------------------------------||   
A|---0---0---0---0---0---0---0---0|---0---0---0---0---0---0---0---0||  
E|5---3---2---1-/-5---3---2---1---|5---3---2---1-/-5---3---2---1---||
 |Hiccup                          |Hiccup                          ||                
 |                                |                                ||
E|5-------------------------------|5-------------------------------||
B|7-------------------------------|7-------------------------------||
G|6-------------------------------|6-------------------------------|| 
D|7-------------------------------|7-------------------------------||   
A|--------------------------------|--------------------------------||  
E|--------------------------------|--------------------------------||

*********************************************************************
Verse IV

  A6
E|--------------------------------|--------------------------------||
B|--------------------------------|--------------------------------||
G|--------------------------------|--------------------------------||
D|--------------------------------|--------------------------------||
A|---0---0---0---0---0---0---0---0|---0---0---0---0---0---0---0---0||
E|5---5---5---5---5---5---5---5---|5---3---2---1-/-5---3---2---1---||
 |                                |                                ||
 |<                               |                                ||
E|5-------------------------------|--------5-------5---4/5--------v|| 
B|7-------------------------------|----5h7---------7---6/7--------v||
G|6-------------------------------|5h6----------------------------v||
D|7-------------------------------|-------------------------------v||
A|--------------------------------|--------------------------------||
E|--------------------------------|--------------------------------||
  I live my life on a layer of ice.


E|--------------------------------|--------------------------------||
B|--------------------------------|--------------------------------||
G|--------------------------------|--------------------------------||
D|--------------------------------|--------------------------------||
A|---0---0---0---0---0---0---0---0|---0---0---0---0---0---0---0---0||
E|5---5---5---5---5---5---5---5---|5---3---2---1-/-5---3---2---1---||
 |                                |                                ||
 |                                |                                ||
E|5-------------------------------|9-------------------------------|| 
B|7-------------------------------|---10-----------7---6/7--------v||
G|6-------------------------------|------9-9h10----6---5/6--------v||
D|7-------------------------------|------------11--7---6/7--------v||
A|--------------------------------|--------------------------------||
E|--------------------------------|--------------------------------||
  Just like those poured
            by my bartender vice.

E|--------------------------------|-----------------------------------||
B|--------------------------------|-----------------------------------||
G|--------------------------------|-----------------------------------||
D|--------------------------------|-----------------------------------||
A|---0---0---0---0---0---0---0---0|-----------------------------------||
E|5---5---5---5---5---5---5---5---|5-5-0-0-9-9-0-0-10-10-0-0-11-11-0-0||
 |                                |                                   ||
 |                                |                                   ||
E|5-------------------------------|--------9-------10--------11-------|| 
B|7-------------------------------|7v------8-------7---------8--------||
G|6-------------------------------|6v---------------------------------||
D|7-------------------------------|7v---------------------------------||
A|--------------------------------|-----------------------------------||
E|--------------------------------|-----------------------------------||
  Any taste of Vermouth
         would be really sublime.                            When you... 
            
            E7                               
        E|--0----0----0----0----0----0----0||
        B|--3----3----3----3----3----3----3||
        G|--1----1----1----1----1----1----1||
        D|--2----2----2----2----2----2----2||
        A|--2----2----2----2----2----2----2||
        E|--0----0----0----0----0----0----0||
         ...have a good martini time!    Mar...

*************************************************************************
Chorus

  D9                              C7
E|10--10--10--10--10--10--10--10-|8---8---8---8---8---8---8---8--||
B|7---7---7---7---7---7---7---7--|11--11--11--11--11--11--11--11-||
G|9---9---9---9---9---9---9---9--|9---9---9---9---9---9---9---9--||
D|10--10--10--10--10--10--10--10-|10--10--10--10--10--10--10--10-||
A|-------------------------------|-------------------------------||
E|-------------------------------|-------------------------------||
 |                               |                               ||
 |                               |                               ||
E|10--------------------------10\|8-------------------8---8---8--|| 
B|10--------------------------10\|8-------------------8---8---8--||
G|11--------------------------11\|9-------------------9---9---9--||
D|12--------------------------12\|10------------------10--10--10-||
A|-------------------------------|-------------------------------||
E|-------------------------------|-------------------------------||
--tini time...                 Martini time....
                 (vodka ice shaker!)             (olive or lime!)


  Bb7                             C#7       F#7      B7       E7
E|6---6---6---6---6---6---6---6--|9---------9--------7--------7---||
B|9---9---9---9---9---9---9---9--|9---------11-------7--------9---||
G|7---7---7---7---7---7---7---7--|10--------9--------8--------7---||
D|8---8---8---8---8---8---8---8--|9---------11-------7--------9---||
A|-------------------------------|11--------9--------9--------7---||
E|-------------------------------|9------------------7------------||
 |                               |                                ||
 |                               |                                ||
E|6---------------6\5-6----6-----|9---------9--------7--------7---|| 
B|6---------------6\5-6----6-----|9---------11-------7--------9---||
G|7---------------7\6-7----7-----|10--------11-------8--------9---||
D|8---------------8\7-8----8-----|--------------------------------||
A|-------------------------------|--------------------------------||
E|-------------------------------|--------------------------------||
Martini time....                  Perfectly poured an' top of the line..
                 (gotta have glasses!)

*************************************************************************
Break

  A6
E|5-------------------------------|5-------------------------------|| Play 2x's
B|7-------------------------------|7-------------------------------||
G|6-------------------------------|6-------------------------------|| 
D|7-------------------------------|7-------------------------------||   
A|---0---0---0---0---0---0---0---0|---0---0---0---0---0---0---0---0||  
E|5---3---2---1-/-5---3---2---1---|5---3---2---1-/-5---3---2---1---||
 |Hiccup                          |Hiccup                          ||                
 |                                |                                ||
E|5-------------------------------|5-------------------------------||
B|7-------------------------------|7-------------------------------||
G|6-------------------------------|6-------------------------------|| 
D|7-------------------------------|7-------------------------------||   
A|--------------------------------|--------------------------------||  
E|--------------------------------|--------------------------------||
                                               (2nd time:) It's Mar...     

*************************************************************************
Outro

  A        C#o      D9        Eb9 A        C#o      D9        Eb9
E|5--------9--------10--------11-|5--------9--------10--------11-||
B|5--------8--------7---------8--|5--------8--------7---------8--||
G|6--------9--------9---------10-|6--------9--------9---------10-||
D|7--------7--------10--------11-|7--------7--------10--------11-||
A|-------------------------------|-------------------------------||
E|-------------------------------|-------------------------------||
...tini time!

  A        C#o      D9        Eb9 E9 ~~~~~~~~~~~~~~~~~~~~~~~~~
E|5--------9--------10--------11-|12-----------------------------||
B|5--------8--------7---------8--|9------------------------------||
G|6--------9--------9---------10-|11-----------------------------||
D|7--------7--------10--------11-|12-----------------------------||
A|-------------------------------|-------------------------------||
E|-------------------------------|-------------------------------||

                                    A6~~~~~~~~~~~~~~~   
   E|12--12---9--------------||   |-5------------------5---||
   B|-----------10-10--------||   |-7------------------7---||
   G|------------------------||   |-6------------------6---||
   D|------------------------||   |-7------------------7---||
   A|------------------------||   |------------------------||
   E|------------------------||   |-5------------------5---||
    "It's mar-tini time"

*******************************************************************************
                                  Chord Chart

      A6              E7               D9              C7               Bb7
                    
 +-+-+-+-+-+     +-+-+-+-+-+      +-+-+-+-+-+      +-+-+-+-+-+      +-+-+-+-+-+
 O | | | | O 5fr | O | | | | 11fr | | | | O | 7fr  | | | | | O 8fr  | | | | | O 6fr
 +-+-+-+-+-+     +-+-+-+-+-+      +-+-+-+-+-+      +-+-+-+-+-+      +-+-+-+-+-+
 | | | O | |     O | O | | |      | | | | | |      | | | O | |      | | | O | |
 +-+-+-+-+-+     +-+-+-+-+-+      +-+-+-+-+-+      +-+-+-+-+-+      +-+-+-+-+-+
 | | O | O |     | | | O | |      | | | O | |      | | O | | |      | | O | | |
 +-+-+-+-+-+     +-+-+-+-+-+      +-+-+-+-+-+      +-+-+-+-+-+      +-+-+-+-+-+
 | | | | | |     | | | | | |      | | O | | O      | | | | O |      | | | | O |
 +-+-+-+-+-+     +-+-+-+-+-+      +-+-+-+-+-+      +-+-+-+-+-+      +-+-+-+-+-+
 1 x 3 2 4 1     2 1 3 4 x x      x x 3 2 1 4      x x 3 2 1 4      x x 3 2 1 4

             C#7             F#7               B7               E7

         +-+-+-+-+-+     +-+-+-+-+-+       +-+-+-+-+-+      +-+-+-+-+-+
         O | O | O O 9fr | O | O | O 9fr   O | O | O O 7fr  | O | O | O 7fr
         +-+-+-+-+-+     +-+-+-+-+-+       +-+-+-+-+-+      +-+-+-+-+-+
         | | | O | |     | | | | | |       | | | O | |      | | | | | |
         +-+-+-+-+-+     +-+-+-+-+-+       +-+-+-+-+-+      +-+-+-+-+-+
         | O | | | |     | | O | O |       | O | | | |      | | O | O |
         +-+-+-+-+-+     +-+-+-+-+-+       +-+-+-+-+-+      +-+-+-+-+-+
         | | | | | |     | | | | | |       | | | | | |      | | | | | |
         +-+-+-+-+-+     +-+-+-+-+-+       +-+-+-+-+-+      +-+-+-+-+-+ 
         1 3 x x x x     x 1 3 1 4 1       1 3 x x x x      x 1 3 1 4 1  

*************************************************************************************
      A               C#o               D9              Eb9              E9

 +-+-+-+-+-+      +-+-+-+-+-+      +-+-+-+-+-+      +-+-+-+-+-+      +-+-+-+-+-+ 
 | | | | O O 5fr  | | O | | | 7fr  | | | | O | 7fr  | | | | O | 8fr  | | | | O | 9fr
 +-+-+-+-+-+      +-+-+-+-+-+      +-+-+-+-+-+      +-+-+-+-+-+      +-+-+-+-+-+ 
 | | | O | |      | | | | O |      | | | | | |      | | | | | |      | | | | | | 
 +-+-+-+-+-+      +-+-+-+-+-+      +-+-+-+-+-+      +-+-+-+-+-+      +-+-+-+-+-+ 
 | | O | | |      | | | O | O      | | | O | |      | | | O | |      | | | O | | 
 +-+-+-+-+-+      +-+-+-+-+-+      +-+-+-+-+-+      +-+-+-+-+-+      +-+-+-+-+-+ 
 | | | | | |      | | | | | |      | | O | | O      | | O | | O      | | O | | O  
 +-+-+-+-+-+      +-+-+-+-+-+      +-+-+-+-+-+      +-+-+-+-+-+      +-+-+-+-+-+ 
 x x 3 2 1 1      x x 1 3 2 4      x x 3 2 1 4      x x 3 2 1 4      x x 3 2 1 4   

*************************************************************************************
*******************************************************************************
Notes:

Vol. Swells = Pedal Steel Guitar

GTR II is creating a Pedal Steel effect by using two techniques. The first is
done by using volume swells with a Vol Pedal, along with using a Chet Atkins  
type vibrato technique with the Bigsby.

This static effect is created by lowering the pitch a half step with the Bigsby
striking and holding a chord with the volume off, then, as you raise it back up
to pitch, raise the volume with the volume pedal.

Second, use the same Chet technique without the volume pedal. Simply lower the
Bigsby a half step or so, then slide the chord up the neck to the next position 
on the fretboard. As you're sliding up the neck, use the Bigsby to raise the
pitch. When you reach the chord position, the Bigsby should then be leveled out

Along with heavy reverb, this creates a nice pedal steel effect when done
properly, like the way The Rev does it.

This technique is used throughout the song and very heavily during the chorus.
Listen to the very end of Chet's version of Mr. Sandman to hear what I mean.

*******************************************************************************
*************************************************************************************
| Legend
| /   slide up
| \   slide down
| h   hammer-on
| p   pull off
| ~   vibrato with Bigsby
| <   volume swell on
| >   volume swell off
| v   quick dip with vibrato arm
*************************************************************************************

            
            
Suggest correction
Creating personal tab
Creating personal tab
You can edit any tab online and save it as your Personal.

You can edit, replace or remove any tab part or add personal notes – all changes will be seen only by you.

Personal tabs can be accessed anytime from any device, even offline.
Learn more »
Give kudos to tab author, rate the tab!
1 2 3 4 5
comments
print report bad tab
guest
You may want to rate the tab now too:
select rating
Wanna post a correction for this tab? Suggest correction