Oops, an error
Loading. Please wait.

Psychobilly Freakout tab

version 2
version 2

Whole song

Interactive

3,585 views 3 this week
1 commentread comment
1 2 3 4 5
x 7
add to favorites
×
Save as Personal and add changes to this tab that will be seen only by you. Learn more ›
×
You can save this tab as Personal to edit and correct it or add notes. All changes will be seen only by you. Learn more »
launch autoscroll
font size
0
reset
how to read this tab
guitar tuner
backing track
0:00
0:00
edit
Autoscroll
slow
fast
+/-
esc
set tempo
stop
Author
Difficulty
Tabbers playing skills
beginner ++
                                                  Psychobilly Freakout


                                                                                         
         The Reverend Horton Heat
Guitar

                         tr                                tr
                                     |--3-|
     W                   H           E    S S  S S  E.     H           S   S S  E  S  E
E||-------------------|---------------------------------|--------------------------------|
B||-------------------|---------------------------------|--------------------------------|
G||-------------------|--------------2s---0----2----0---|--------------2h--4----5-----5--|
D||-------------------|--------------2s---0----2----0---|--------------2h--4----5-----5--|
A||-------------------|---------------------------------|--------------------------------|
E||-------------------|--5(3)--------0----L-L--L-L--L---|--5(3)--------0---L-L--L--L--L--|


  tr                                tr                         \1/    ^                  
W
              |--3-|
  H           E    S S  S S  E.     H           S   S S  S S S E      W                  
W
---------------------------------|-----------------------------0---|--L----------------|--L----------------|
---------------------------------|-----------------------------0---|--L----------------|--L----------------|
--------------2s---0----2----0---|--------------2h--4----5---L-0---|--L----------------|--L----------------|
--------------2s---0----2----0---|--------------2h--4----5---L-----|-------------------|-------------------|
---------------------------------|---------------------------------|-------------------|-------------------|
--5(3)--------0----L-L--L-L--L---|--5(3)--------0---L-L--L-L-L-----|-------------------|-------------------|


  E   E   E   E   E   E   E   E      S S S S S S S S S S S S S S S S    E  Q    E  S S S E S E
----------------------------------|----------------------------------|-----0---------------------|
----------------------------------|----------------------------------|-----0-------3-3---2----0--|
----------------------------------|----------------------------------|-------------3-3---2----0--|
----------------------------------|--------------------------0-0-2-2-|---------------------------|
-----(5)-----(5)-----(5)-----(5)--|--------------0-0-2-2-3-3---------|---------------------------|
--0---3---0---3---0---3---0---3---|--0-0-2-2-3-3---------------------|--0-------0------0----0----|


                                                           >  >  >  >  >  >   >
  E  Q    E  S S S S S S S S    E  Q    E  E  S E  S E     E  E  E  E  E  E   Q        E 
Q    E  E  S E  S E
-----------------------------|-----0--------------------|--3--2--0--2--3--2--10b----|-----0--------------------|
-----0-------0-0-2-2-3-3-3-2-|-----0-------3----2----0--|--3--2--0--2--3--2--10b----|-----0-------3----2----0--|
-----0-------0-0-2-2-3-3-3-2-|-------------3----2----0--|---------------------------|-------------3----2----0--|
-----------------------------|--------------------------|---------------------------|--------------------------|
-----------------------------|--------------------------|---------------------------|--------------------------|
--0-------0------------------|--0-------0-----0----0----|---------------------------|--0-------0-----0----0----|


  S  S   E    E    E    E     Q    E      E  Q    E  S S S E  S E     S S S S S S S S S SS S S S S S
----12--12---12---12---12---0g7----5\--|-----0---------------------|--3-3-2-2-0-0---------------------|
----15b-15b--15b--15b--15b-------------|-----0-------3-3---2----0--|--------------3-3-2-2-1-1-1-0-0-0-|
---------------------------------------|-------------3-3---2----0--|----------------------------------|
--x------------------------------------|---------------------------|----------------------------------|
--x------------------------------------|---------------------------|----------------------------------|
--x------------------------------------|--0-------0------0---------|----------------------------------|


  E   E.   S E  E.  E.  E     E   E.   S E  E.  E.  E     E   E.   S E  E.  E.  E     E  E E  E  E  E  E  E
------0---------3---3---3--|------0---------5---5---5--|------0---------7---7---7--|--------------------------|
-----(0)--------3---3---3--|-----(0)--------5---5---5--|-----(0)--------7---7---7--|--------------------------|
---------------------------|---------------------------|---------------------------|--9--9--9--9--9--9--9--9--|
---------------------------|---------------------------|---------------------------|--9--9--9--9--9--9--9--9--|
---------------------------|---------------------------|---------------------------|--7--7--7--7--7--7--7--7--|
--0--------3-0-------------|--0--------3-0-------------|--0--------3-0-------------|--------------------------|


                                                                                   >    >   >    >
  E  E  E  E  E  E  E  E     E  E  E  E  E  E  E  E     E  E  E  E  E  E  E  E     Q    Q   Q    Q
--------------------------|--------------------------|--------------------------|----------------------|
--------------------------|--------------------------|--------------------------|----------------------|
-----2-----2-----2-----2--|-----2-----2-----2-----2--|-----2-----2-----2-----2--|----------------------|
-----0-----0-----0-----0--|-----0-----0-----0-----0--|-----0-----0-----0-----0--|----------------------|
--3-----3-----3-----3-----|--3-----3-----3-----3-----|--3-----3-----3-----3-----|--2----3----2----1----|
--------------------------|--------------------------|--------------------------|----------------------|


  >    >    >    >         W
  Q    Q    Q    E  E      W                    W                   W                   
          E  E
-----------------------|---0-----------------|--L----------------|--L----------------|--L-------------------|
-----------------------|---0-----------------|--L----------------|--L----------------|--L-------------------|
-----------------------|--(0)----------------|--L----------------|--L----------------|--L-------------------|
-----------------------|---------------------|-------------------|-------------------|------------------2\--|
--2----0---------------|---------------------|-------------------|-------------------|----------------------|
------------3----2-----|---------------------|-------------------|-------------------|----------------------|


  E  Q    E  E  S E.  E     S  S S S S  S S S S S E  E   E     E  E  E  E  E  S E.  E    
E  E  E  E  S S S E  S E
-----3-------3--6-3---3--|--3p-0---0-2p-0---------0--0---0--|--0--0--0--0--3--7-7---6--|--0--0--0--0--7-7---6----0--|
-----3-------3--3-3---3--|-------3--------3-0-0-2----3s--5--|--5--5--5--5--5--5-5---5--|--5--5--5--5--5-5---5----5--|
-------------------------|----------------------------------|--------------------------|----------------------------|
-------------------------|----------------------------------|--------------------------|----------------------------|
-------------------------|----------------------------------|--------------------------|----------------------------|
--0-------0--------------|----------------------------------|--------------------------|----------------------------|


  S S  S   S  S S  S   S  S S  S  S S S S S      S  S  S  S  S  S  S  S  S  S  S  S  S  S S  S
--3-3--3---3--5-5-(5)-(5)-7-7--7--5-5-5-5-5s-|--10-10-10-10-10-10-10-10-10-10-10-10-10-10-10-10-|
--5-5-(5)-(5)-5-5--5---5--5-5-(5)-5-5-5-5-5s-|---8--8--8--8--8--8--8--8--8--8--8--8--8--8--8--8-|
---------------------------------------------|--------------------------------------------------|
---------------------------------------------|--------------------------------------------------|
---------------------------------------------|--------------------------------------------------|
---------------------------------------------|--------------------------------------------------|


   S  S  S  S  S  S  S  S  S  S  S  S  E   E      E   E   E   E   E   E   Q         E   E  E   E   E   E   S   S   E
--12-12-10-10-12-12-10-10-12-12-10-10-10--12--|--10------10---------------------|--12---0---0---0--15--12--10-(15)--L--|
--12-12-12-12-12-12-12-12-12-12-12-12---------|------12------12--10------12\----|--12--12--12--12--12--12--12---L--12--|
----------------------------------------------|----------------------12---------|--------------------------------------|
----------------------------------------------|---------------------------------|--------------------------------------|
----------------------------------------------|---------------------------------|--------------------------------------|
----------------------------------------------|---------------------------------|--------------------------------------|


   E   E   E   E   E   E   E   E      Q       E  E  E  E  E  E     E  E  E  E  E  E  E  E    E  E  E  E  E  E  E  E
--12---0---0---0--10--10--10--10--|--12\------------------------|--------------------------|--------------------------|
--12--12--12--12--12--12--12--12--|--12\----1g3-----3-----------|--------------------------|--------------------------|
----------------------------------|--------------4-----4--2--0--|--9--9--9--9--9--9--9--9--|-----2-----2-----2-----2--|
----------------------------------|-----------------------------|--9--9--9--9--9--9--9--9--|-----0-----0-----0-----0--|
----------------------------------|-----------------------------|--7--7--7--7--7--7--7--7--|--3-----3-----3-----3-----|
----------------------------------|-----------------------------|--------------------------|--------------------------|


                                                        >    >    >    >       >    >    
   >         W
  E  E  E  E  E  E  E  E     E  E  E  E  E  E  E  E     Q    Q    Q    Q       Q    Q    
   E  E      W
--------------------------|--------------------------|----------------------|-----------------------|---0-----------------|
--------------------------|--------------------------|----------------------|-----------------------|---0-----------------|
-----2-----2-----2-----2--|-----2-----2-----2-----2--|----------------------|-----------------------|--(0)----------------|
-----0-----0-----0-----0--|-----0-----0-----0-----0--|----------------------|-----------------------|---------------------|
--3-----3-----3-----3-----|--3-----3-----3-----3-----|--2----3----2----1----|--2----0---------------|---------------------|
--------------------------|--------------------------|----------------------|------------3----2-----|---------------------|


  W                   W                   W                   W                   W
--L----------------|--L----------------|--L----------------|--L----------------|--L----------------|
--L----------------|--L----------------|--L----------------|--L----------------|--L----------------|
--L----------------|--L----------------|--L----------------|--L----------------|--L----------------|
-------------------|-------------------|-------------------|-------------------|-------------------|
-------------------|-------------------|-------------------|-------------------|-------------------|
-------------------|-------------------|-------------------|-------------------|-------------------|


  tr                                tr                               tr
              |--3-|                                                             |--3-|
  H           E    S S  S S  E.     H           S   S S  E  S  E     H           E    S 
 S S  E.
---------------------------------|--------------------------------|---------------------------------|
---------------------------------|--------------------------------|---------------------------------|
--------------2s---0----2----0---|--------------2h--4----5-----5--|--------------2s---0----2----0---|
--------------2s---0----2----0---|--------------2h--4----5-----5--|--------------2s---0----2----0---|
---------------------------------|--------------------------------|---------------------------------|
--5(3)--------0----L-L--L-L--L---|--5(3)--------0---L-L--L--L--L--|--5(3)--------0----L-L--L-L--L---|


  tr                             \1/                      W               \1/
  H           S   S S  E  E.     W                   Q    H.              W              
    W
------------------------------|--0----------------|--L----0------------|--0----------------|--L----------------|
------------------------------|--0----------------|--L----0------------|--0----------------|--L----------------|
--------------2h--4----5--L---|--0----------------|--L----0------------|--0----------------|--L----------------|
--------------2h--4----5--L---|-------------------|--------------------|-------------------|-------------------|
------------------------------|-------------------|--------------------|-------------------|-------------------|
--5(3)--------0---L-L--L--L---|-------------------|--------------------|-------------------|-------------------|


  E.  E.  Q.      Q       E.  E.  Q.     Q       E.  E.  Q.     E  E     H.            Q 
      E.  E.  Q.      Q
-----------------------|----------------------|-----------------------|----------------------|-----------------------|
-----------------------|----------------------|-----------------------|----------------------|-----------------------|
-----------------------|----------------------|-----------------------|----------------------|-----------------------|
-----------------------|----------------------|-----------------------|----------------------|-----------------------|
----------2~------L----|----------5------L----|----------5------3--0--|--2------------14\----|----------2~------L----|
--0---3----------------|--0---3---------------|--0---3----------------|----------------------|--0---3----------------|


                                                                      \1/
  E.  E.  Q.      Q       E.  E.  Q.     E  E     W                   W                  
W
-----------------------|-----------------------|-------------------|--0----------------|--L----------------|
-----------------------|-----------------------|-------------------|--0----------------|--L----------------|
-----------------------|-----------------------|-------------------|--0----------------|--L----------------|
-----------------------|-----------------------|-------------------|-------------------|-------------------|
----------0~------L----|----------5------3--0--|--2----------------|-------------------|-------------------|
--0---3----------------|--0---3----------------|-------------------|-------------------|-------------------|


  W                   W                   S  S  S  S S S S S S S  S  S S S S S    S S  S 
S S S S S E  S E  S E
-------------------|-------------------|--------0--0-------0------0------------|-------0-------------------------|
--L----------------|--L----------------|--3h-5-(3)---5-3-5---3-5-(3)-5-0-3-5-L-|--3-5-(3)-5-L-L-3-L-0--0-5--5-0--|
-------------------|-------------------|---------------------------------------|---------------------------------|
-------------------|-------------------|---------------------------------------|---------------------------------|
-------------------|-------------------|---------------------------------------|---------------------------------|
-------------------|-------------------|---------------------------------------|---------------------------------|


  S  S  S  S S S S S S S  S  S S S S S    S S  S  S S S S S E  S E  S E     S S  S S S S SS S S S S S S S S
--------0--0--------------0------------|-------0-------------------------|--5--------------------------------|
--3h-5-(3)---5-3-5-5-3-5-(3)-5-0-3-5-L-|--3-5-(3)-5-L-L-3-L-0--0-5--5-0--|----8p-5---8-5-----5---------------|
---------------------------------------|---------------------------------|---------7-----7-4---7-4---7-4-----|
---------------------------------------|---------------------------------|-------------------------7-----7-5-|
---------------------------------------|---------------------------------|-----------------------------------|
---------------------------------------|---------------------------------|-----------------------------------|


  S S S S S S S S S S E   E   E     E  Q    Q.     E  E     E  Q    H        E     S  S 
S S S  Q     E  E  E
---------------------------------|----------0------0--0--|----------0--------L--|-------0-0-0-0--7--------------|
---------------------------------|----------0------0--0--|----------0--------L--|--3h-5---------10b----------0--|
--4------------------------------|-----------------------|----------------------|----------------------9--7-----|
----7-5---7-5-----5--------------|-----------------------|----------------------|-------------------------------|
--------7-----7-5---7-5S--2p--0--|-----------------------|----------------------|-------------------------------|
---------------------------------|--3--0-----------------|--3--0----------------|-------------------------------|


  S  S S S S S  Q      S  S  E   E     S S S S S S  Q      E   E   E
-------0-0-0-0-12-------------------|------0-0-0-0--7-----------------|
--3h-5---------15b----15-12-15--12--|--3-5---------10b--------12--15--|
------------------------------------|---------------------14----------|
------------------------------------|---------------------------------|
------------------------------------|---------------------------------|
------------------------------------|---------------------------------|


   S  S   S   S   S  S   S   S   S  S   S   S   S  S   S   S     E  E  E  E  E  S E  S E 
   E  E  E  E  E  S E  S E
--12-12--12--12--12-12--12--12--12-12--12--12--12-12--12--12--|---------------------------|---------------------------|
--15-15b-15b-15b-15-15b-15b-15b-15-15b-15b-15b-15-15b-15b-15b-|---------------------------|---------------------------|
--------------------------------------------------------------|---------------------------|---------------------------|
--------------------------------------------------------------|---------------------------|---------------------------|
--------------------------------------------------------------|---------------------------|---------------------------|
--------------------------------------------------------------|--0--3--0--3--0--3-0--0-3--|--0--3--0--3--0--3-0--0-3--|


  E  E  E  E  E  E  E  E     E  E  E  E  E  E  E  E     E  E  E  E  E  E  E  E     E  E  E E  E  E  E  E
--------------------------|--0--0--0--0--0--0--0--0--|--------------------------|--------------------------|
--------------------------|--0--0--0--0--0--0--0--0--|--------------------------|--------------------------|
--------------------------|--9--9--9--9--9--9--9--9--|--L--2-----2-----2-----2--|-----2-----2-----2-----2--|
--------------------------|--9--9--9--9--9--9--9--9--|--L--0-----0-----0-----0--|-----0-----0-----0-----0--|
--------------------------|--7--7--7--7--7--7--7--7--|--3-----3-----3-----3-----|--3-----3-----3-----3-----|
--0--3--0--3--0--3--0--3--|--------------------------|--------------------------|--------------------------|


                             >    >    >    >       >    >    >    >         ^
  E  E  E  E  E  E  E  E     Q    Q    Q    Q       Q    Q    Q    Q         Q     Q    W
--------------------------|----------------------|-----------------------|---0---------------------------|
--------------------------|----------------------|-----------------------|---0---------------------------|
-----2-----2-----2-----2--|----------------------|-----------------------|--(0)--------------------------|
-----0-----0-----0-----0--|----------------------|-----------------------|-------------------------------|
--3-----3-----3-----3-----|--2----3----2----1----|--2----0---------------|-------------------------------|
--------------------------|----------------------|------------3----2\----|-------------------------------|


   ^                    TP  TP  TP  TP   TP  TP   TP   TP      TP   TP   TP      TP
   W.                   E.  E.  E.  E.   E.  E.   E.   E.      E.   E.   Q.      H.
---0-----------------|-------------------------------------|-----------------------------------|
---0-----------------|--5---8---7---8---10---8---10---12---|--10---12---15------15b------------|
--(0)----------------|-------------------------------------|-----------------------------------|
---------------------|-------------------------------------|-----------------------------------|
---------------------|-------------------------------------|-----------------------------------|
---------------------|-------------------------------------|-----------------------------------|


                        \6
  W                Q    Q       W.                  H.           H.
--L----------------L---------|-------------------|----------------------------||
-----------------------------|-------------------|----------------------------||
-----------------------------|-------------------|----------------------------||
-----------------------------|-------------------|----------------------------||
-----------------------------|-------------------|----------------------------||
------------------------0----|--L----------------|--L-------------------------||


Duration Legend
---------------
W - whole
H - half
Q - quarter
E - 8th
S - 16th
T - 32nd
X - 64th
. - note dotted
|-n-|  - n-tuplets


Tablature Legend
----------------
L - tied note
x - dead note
g - grace note
(n) - ghost note
> - accentuded note
NH - natural harmonic
AH - artificial harmonic
TH - tapped harmonic
SH - semi harmonic
PH - pitch harmonic
h - hammer on
p - pull off
b - bend
br - bendRelease
pb - preBend
pbr - preBendRelease
brb - bendReleaseBend
\n/ - tremolo bar dip
\n - tremolo bar dive
-/n - tremolo bar Release up
/n\ - tremolo bar inverted dip
/n - tremolo bar return
-\n - tremolo bar Release down
S - shift slide
s - legato slide
/ -  slide into from below or out of upwards
\ -  slide into from above or out of downwards
~ - vibrato
W - wide vibrato
tr - trill
TP - tremolo picking
T - tapping
S - slap
P - pop
< - fade in
^ - brush up
v - brush down

            
            
Suggest correction
Creating personal tab
Creating personal tab
You can edit any tab online and save it as your Personal.

You can edit, replace or remove any tab part or add personal notes – all changes will be seen only by you.

Personal tabs can be accessed anytime from any device, even offline.
Learn more »
comments
print report bad tab
1 comment total.
0 reply
Theaceof8S 12 Aug 04, 2017 04:38 PM

Wheelll....
It rocks!
It rooocks!!!

guest
You may want to rate the tab now too:
select rating
Wanna post a correction for this tab? Suggest correction