Oops, an error
Loading. Please wait.

An Anniversary Away Bass Tab

321 views 3 this week
no commentswrite comment
1 2 3 4 5
please rate
add to favorites
launch autoscroll
font size
0
reset
guitar tuner
Tab Pro tools
  • play this tab
  • loop segment
  • change instrument
  • show fretboard
  • metronome
Autoscroll
slow
fast
+/-
esc
set tempo
stop
Contributor
-------------------------------------------------------------------------------
		 An Anniversary Away - Reverie Sound Revue
-------------------------------------------------------------------------------

 Tabbed by:dvanwyk
 Email:dustinvanwyk@yahoo.com

 Tuning:Standard

 Intro/Verse x2
G|--------------------------------------------------------------------------6---|
D|-----------------6----------------------------------------6-6-6-9-6-4-4-4---4-|
A|77-7-77-7-77-7-7---66-6-66-6-66-6-6-7-22-2-22-2-22-2-22-4---------------------|
E|------------------------------------------------------------------------------|

 x1
G|--------------------|
D|77-7-77-7-77-7-77---|
A|--------------------|
E|--------------------|

 Verse x2

 Chorus x3
G|-----4----4---4--------6----6---6----|
D|-------------------------------------|
A|2-22---22---2--22-4-44---44---4------|
E|-------------------------------------|

 Pause

 
G|-----44---4----------------6-4---------------------------------------------|
D|---4--------4------------------6-4-66-6-66-44-4-44-------------------------|
A|22------22-----44-4-44-4-44-------------------------77-7-77-7-77-9h11-11p9-|
E|---------------------------------------------------------------------------|

G|-----44---4----------------6-4---------------------|
D|---4--------4------------------6-4-66-6-66-44-4-44-|
A|22------22-----44-4-44-4-44------------------------|
E|---------------------------------------------------|


 Verse x1

 Chorus x3
G|-----44---4----------------6-4---------------------------------------------|
D|---4--------4------------------6-4-66-6-66-44-4-44-------------------------|
A|22------22-----44-4-44-4-44-------------------------77-7-77-7-77-9h11-11p9-|
E|---------------------------------------------------------------------------|

G|-----44---4----------------6-4-----------------------------------|
D|---4--------4------------------6-4-66-6-66-44-4-44---------------|
A|22------22-----44-4-44-4-44-------------------------77-7-77-7-77-|
E|-----------------------------------------------------------------|

G|-----------------------|
D|-----------------------|
A|7-77-77-77-9h11-11p9---|
E|-----------------------|

G|----------|
D|----------|
A|2~--------|
E|----------|
comments
We did not receive enough feedback on this tab! Please rate:
print report bad tab
1 2 3 4 5
I want to post or [tab]
guest
You may want to rate the tab now too:
select rating
Please do not post tabs as comments. Select "correction" instead!