Oops, an error
Loading. Please wait.

Prelude To A Debut Tab

318 views 1 this week
1 commentread comment
1 2 3 4 5
2 more votes to show rating
add to favorites
launch autoscroll
font size
0
reset
how to read this tab
guitar tuner
Autoscroll
slow
fast
+/-
esc
set tempo
stop
Help us to improve Ultimate-Guitar.com Take our survey!
×
Author
Difficulty
intermediate
-----------------------------------------------------------------------------
                      PRELUDE TO A DEBUT - Reverie Sound Revue
-----------------------------------------------------------------------------
Tabbed by: Travis G.
Email: tg_435@hotmail.com
Tuning: Standard EADGBE

This tab is pretty rough, but it sounds good played acoustically, alone.

Intro [0:00 - 0:13] x 2

     E  E  E  E  E  E  E  E     E  E  E  E  E  E  E  E
E||--------------------------|--------------------------|
B||--------------------------|--------------------------|
G||--------2-----------4-----|--------------------------|
D||-----4-----4-----2-----2--|--------2-----------4-----|
A||--5-----------4-----------|-----4-----4-----2-----4--|
E||--------------------------|--5-----------4-----------|


  E  E  E  E  H           W
-----------------------|-------------------|
-----------------------|-------------------|
-----------1--L--------|--L----------------|
--------2--------------|-------------------|
-----0-----------------|-------------------|
--2--------------------|-------------------|


Verse [0:13 - 0:29]

  E  Q    Q    E  E  E     E  Q    Q    E  E  E
------------------------|------------------------|
------------------------|------------------------|
--4---------------4-----|--6---------------6-----|  [x4]
--6---------------6-----|--7---------------7-----|
-----4------------4-----|-----5------------5-----|
----------5-------5-----|----------7-------7-----|

"Sister, I miss her..." [0:29 - 0:37]

  E  E  E  E  H           E  E  E  E  H           E  E  E  E  H
-----------------------|-----------------------|-----------------------|
-----------0--L--------|-----------------------|-----------------------|
-----------------------|-----------6--L--------|-----------9--L--------|
--------2--------------|--------4--------------|--------9--------------|
-----4-----------------|-----5-----------------|-----7-----------------|
--5--------------------|--7--------------------|--9--------------------|


   E  E   E   E   H            W
---------------------------|--------------------||
-------------10---L--------|---L----------------||
---------------------------|--------------------||
---------11----------------|--------------------||
------9--------------------|--------------------||
--10-----------------------|--------------------||

Chorus [0:37 - 0:52]

I'm not 100% sure on these chords.
  Q    Q    Q    Q       Q    Q    Q    Q
----------------------|----------------------|
----------------------|----------------------|
----------------------|--6---------9---------|
--6---------6---------|--7---------6---------|
--4---------4---------|--4---------9---------|
--5---------7---------|----------------------|

Then play "Sister I miss her" again, Then:

"You knew" [1:00 - 1:31]

Not quite sure EXACTLY what is being played here, but you can just fingerpick these 
chords and it sounds alike.

-------------------|
-------------------|
-8--------6--------|
-9--------7--------|
-7--x4----5---x4---|
-9--------7--------|

Then, for the rest of the song:

Intro [1:31 - 1:39]
Verse [1:39 - 1:52]
Play only the first chord in "Sister I miss her"
Chorus [1:54 - 2:08]
"Sister I miss her" chords [2:08 - 2:32]
"You knew" [2:32 - 3:30]
Play intro until end.
Suggest correction
Give kudos to tab author, rate the tab!
1 2 3 4 5
comments
print report bad tab
1 comment total.
0 reply
distortion91 10 Nov 19, 2011 03:53 AM

Hey! This is great. Everything is correct except for the chord progression at [0:37 - 0:52]. I just figured out the chords and I'll post them when I have a chance. But good job! I wish more Reverie Sound Revue songs were tabbed.

guest
You may want to rate the tab now too:
select rating
Wanna post a correction for this tab? Suggest correction