Oops, an error
Loading. Please wait.

Chofer (Psicotropical) tab

31 views 3 this week
no commentswrite comment
1 2 3 4 5
3 more votes to show rating
add to favorites
×
Save as Personal and add changes to this tab that will be seen only by you. Learn more ›
×
You can save this tab as Personal to edit and correct it or add notes. All changes will be seen only by you. Learn more »
launch autoscroll
font size
0
reset
how to read this tab
guitar tuner
edit
Autoscroll
slow
fast
+/-
esc
set tempo
stop
intro..

1ª GUITARRA
e|---3-----3-----3-----3-----3-----3/4-|3-----3-----3-----3-----3-----3/4-|
B|----1-1---1-1---1-1---1-1---1--------|-1-1---1-1---1-1---1-1---1--------|
G|-------------------------------------|----------------------------------|
D|-------------------------------------|----------------------------------|
A|-------------------------------------|----------------------------------|
E|-------------------------------------|----------------------------------|


e|---3-----3-----3-----3-----3-----3/4-|3-----3-----3-----66--44--33--1~~~|
B|----1-1---1-1---1-1---1-1---1--------|-1-1---1-1---1--------------------|
G|-------------------------------------|----------------------------------|
D|-------------------------------------|----------------------------------|
A|-------------------------------------|----------------------------------|
E|-------------------------------------|----------------------------------|

2ª GUITARRA
e|-------------------------------------|----------------------------------|
B|-------------------------------------|----------------------------------|
G|-------------------------------------|----------------------------------|
D|----3-3-3-3-3-3-3-3-3-3-3-3-3-3-3----|----6-6-6-6-6-6-6-6-6-6-6-6-6-6-6-|
A|----3-3-3-3-3-3-3-3-3-3-3-3-3-3-3----|----6-6-6-6-6-6-6-6-6-6-6-6-6-6-6-|
E|----1-1-1-1-1-1-1-1-1-1-1-1-1-1-1----|----4-4-4-4-4-4-4-4-4-4-4-4-4-4-4-|
      * * * * * *

e|-------------------------------------|----------------------------------|
B|-------------------------------------|----------------------------------|
G|-------------------------------------|----------------------------------|
D|----3-3-3-3-3-3-3-3-3-3-3-3-3-3-3----|----6-6-6-6-6-6-6-6-6-6-6-6-6-6-6-|
A|----3-3-3-3-3-3-3-3-3-3-3-3-3-3-3----|----6-6-6-6-6-6-6-6-6-6-6-6-6-6-6-|
E|----1-1-1-1-1-1-1-1-1-1-1-1-1-1-1----|----4-4-4-4-4-4-4-4-4-4-4-4-4-4-4-|
      * * * * * *


me baje en el mercado...                 de la linea 40
e|-----------------------------------|--------------------------------|
B|-----------------------------------|--------------------------------|
G|-----------------------------------|--------------------------------|
D|---xx-5-xx-5-xxxx--5-xx-5----------|---xxx-3-xx-3-xxx-3-x-3-333/5---|
A|---xx-3-xx-3-xxxx--3-xx-3----------|---xxx-1-xx-1-xxx-1-x-1-111/3---|
E|---xx-x-xx-x-xxxx--x-xx-x----------|---xxx-x-xx-x-xxx-x-x-x-xxx/x---|
me compre un champion...               para mi año
e|-----------------------------------|--------------------------------|
B|-----------------------------------|--------------------------------|
G|-----------------------------------|---999999-------121212121212----|
D|---xx-5-xx-5-xxxx--5-xx-5-xxx------|---xxxxxx--------x-x-x-x-x-x----|
A|---xx-3-xx-3-xxxx--3-xx-3-xxx------|---777777-------101010101010----|
E|---xx-x-xx-x-xxxx--x-xx-x-xxx------|---xxxxxx--------x-x-x-x-x-x----|


chipa chipa chipa chipa chipa chipon..   chipa chipa chila lleva almidon
e|-------------------------------------|----------------------------------|
B|-------------------------------------|----------------------------------|
G|-------------------------------------|----------------------------------|
D|----3-3-3-3-3-3-3-3-3-3-3-3-3-3-3----|----6-6-6-6-6-6-6-6-6-6-6-6-6-6-6-|
A|----3-3-3-3-3-3-3-3-3-3-3-3-3-3-3----|----6-6-6-6-6-6-6-6-6-6-6-6-6-6-6-|
E|----1-1-1-1-1-1-1-1-1-1-1-1-1-1-1----|----4-4-4-4-4-4-4-4-4-4-4-4-4-4-4-|
      * * * * * *
hoy comi bori bori...                  con puchero
e|-----------------------------------|--------------------------------|
B|-----------------------------------|--------------------------------|
G|-----------------------------------|--------------------------------|
D|---xx-5-xx-5-xxxx--5-xx-555--------|---xxx-3-xx-3-xxx-3-x-3-333/5---|
A|---xx-3-xx-3-xxxx--3-xx-333--------|---xxx-1-xx-1-xxx-1-x-1-111/3---|
E|---xx-x-xx-x-xxxx--x-xx-xxx--------|---xxx-x-xx-x-xxx-x-x-x-xxx/x---|
me acoste y soñe...                    con mi bondi
e|-----------------------------------|--------------------------------|
B|-----------------------------------|--------------------------------|
G|-----------------------------------|---999999-------121212121212----|
D|---xx-5-xx-5-xxxx--5-xx-5-xxx------|---xxxxxx--------x-x-x-x-x-x----|
A|---xx-3-xx-3-xxxx--3-xx-3-xxx------|---777777-------101010101010----|
E|---xx-x-xx-x-xxxx--x-xx-x-xxx------|---xxxxxx--------x-x-x-x-x-x----|


quiero serrrr...                           un choferrrrr...
e|-------------------------------------|----------------------------------|
B|-------------------------------------|----------------------------------|
G|-------------------------------------|----------------------------------|
D|----3-3-3-3-3-3-3-3-3-3-3-3-3-3-3----|----6-6-6-6-6-6-6-6-6-6-6-6-6-6-6-|
A|----3-3-3-3-3-3-3-3-3-3-3-3-3-3-3----|----6-6-6-6-6-6-6-6-6-6-6-6-6-6-6-|
E|----1-1-1-1-1-1-1-1-1-1-1-1-1-1-1----|----4-4-4-4-4-4-4-4-4-4-4-4-4-4-4-|
      * * * * * *
psicotropical....
e|----------------------------------|---------------------------|
B|----------------------------------|---------------------------|
G|----------------------------------|---------------------------|
D|-----5-555----5-5555--------------|---9999--999---------------|
A|---2/3-333--2/3-3333--------------|---7777--555---------------|
E|----------------------------------|---------------------------|
.....
e|----------------------------------|---------------------------|
B|----------------------------------|---------------------------|
G|----------------------------------|---------------------------|
D|-----5-555----5-5555--------------|---9999--999---------------|
A|---2/3-333--2/3-3333--------------|---7777--555---------------|
E|----------------------------------|---------------------------|

quiero serrrr...                           un choferrrrr...
e|-------------------------------------|----------------------------------|
B|-------------------------------------|----------------------------------|
G|-------------------------------------|----------------------------------|
D|----3-3-3-3-3-3-3-3-3-3-3-3-3-3-3----|----6-6-6-6-6-6-6-6-6-6-6-6-6-6-6-|
A|----3-3-3-3-3-3-3-3-3-3-3-3-3-3-3----|----6-6-6-6-6-6-6-6-6-6-6-6-6-6-6-|
E|----1-1-1-1-1-1-1-1-1-1-1-1-1-1-1----|----4-4-4-4-4-4-4-4-4-4-4-4-4-4-4-|
      * * * * * *

psicotropical....
e|----------------------------------|---------------------------|
B|----------------------------------|---------------------------|
G|----------------------------------|---------------------------|
D|-----5-555----5-5555--------------|---9999--999---------------|
A|---2/3-333--2/3-3333--------------|---7777--555---------------|
E|----------------------------------|---------------------------|
.....
e|----------------------------------|---------------------------|
B|----------------------------------|---------------------------|
G|----------------------------------|---------------------------|
D|-----5-555----5-5555--------------|---9999--999---------------|
A|---2/3-333--2/3-3333--------------|---7777--555---------------|
E|----------------------------------|---------------------------|

voy a pegar calcomanias                 de mis grupos
e|-----------------------------------|--------------------------------|
B|-----------------------------------|--------------------------------|
G|-----------------------------------|--------------------------------|
D|---xx-5-xx-5-xxxx--5-xx-5----------|---xxx-3-xx-3-xxx-3-x-3-333/5---|
A|---xx-3-xx-3-xxxx--3-xx-3----------|---xxx-1-xx-1-xxx-1-x-1-111/3---|
E|---xx-x-xx-x-xxxx--x-xx-x----------|---xxx-x-xx-x-xxx-x-x-x-xxx/x---|
voy a escuchar rock an roll              en un micro
e|-----------------------------------|--------------------------------|
B|-----------------------------------|--------------------------------|
G|-----------------------------------|---999999-------121212121212----|
D|---xx-5-xx-5-xxxx--5-xx-5-xxx------|---xxxxxx--------x-x-x-x-x-x----|
A|---xx-3-xx-3-xxxx--3-xx-3-xxx------|---777777-------101010101010----|
E|---xx-x-xx-x-xxxx--x-xx-x-xxx------|---xxxxxx--------x-x-x-x-x-x----|

chipa chipa chipa chipa chipa chipon...  chipa chipa chila lleva almidon
e|-------------------------------------|----------------------------------|
B|-------------------------------------|----------------------------------|
G|-------------------------------------|----------------------------------|
D|----3-3-3-3-3-3-3-3-3-3-3-3-3-3-3----|----6-6-6-6-6-6-6-6-6-6-6-6-6-6-6-|
A|----3-3-3-3-3-3-3-3-3-3-3-3-3-3-3----|----6-6-6-6-6-6-6-6-6-6-6-6-6-6-6-|
E|----1-1-1-1-1-1-1-1-1-1-1-1-1-1-1----|----4-4-4-4-4-4-4-4-4-4-4-4-4-4-4-|
      * * * * * *
voy a escuchar rock nacional           en mi bondi
e|-----------------------------------|--------------------------------|
B|-----------------------------------|--------------------------------|
G|-----------------------------------|--------------------------------|
D|---xx-5-xx-5-xxxx--5-xx-555--------|---xxx-3-xx-3-xxx-3-x-3-333/5---|
A|---xx-3-xx-3-xxxx--3-xx-333--------|---xxx-1-xx-1-xxx-1-x-1-111/3---|
E|---xx-x-xx-x-xxxx--x-xx-xxx--------|---xxx-x-xx-x-xxx-x-x-x-xxx/x---|
voy a sebar, voy a cobrar,             manejando !!
e|-----------------------------------|--------------------------------|
B|-----------------------------------|--------------------------------|
G|-----------------------------------|---999999-------121212121212----|
D|---xx-5-xx-5-xxxx--5-xx-5-xxx------|---xxxxxx--------x-x-x-x-x-x----|
A|---xx-3-xx-3-xxxx--3-xx-3-xxx------|---777777-------101010101010----|
E|---xx-x-xx-x-xxxx--x-xx-x-xxx------|---xxxxxx--------x-x-x-x-x-x----|

quiero serrrr...                           un choferrrrr...
e|-------------------------------------|----------------------------------|
B|-------------------------------------|----------------------------------|
G|-------------------------------------|----------------------------------|
D|----3-3-3-3-3-3-3-3-3-3-3-3-3-3-3----|----6-6-6-6-6-6-6-6-6-6-6-6-6-6-6-|
A|----3-3-3-3-3-3-3-3-3-3-3-3-3-3-3----|----6-6-6-6-6-6-6-6-6-6-6-6-6-6-6-|
E|----1-1-1-1-1-1-1-1-1-1-1-1-1-1-1----|----4-4-4-4-4-4-4-4-4-4-4-4-4-4-4-|
      * * * * * *

psicotropical....
e|----------------------------------|---------------------------|
B|----------------------------------|---------------------------|
G|----------------------------------|---------------------------|
D|-----5-555----5-5555--------------|---9999--999---------------|
A|---2/3-333--2/3-3333--------------|---7777--555---------------|
E|----------------------------------|---------------------------|
.....
e|----------------------------------|---------------------------|
B|----------------------------------|---------------------------|
G|----------------------------------|---------------------------|
D|-----5-555----5-5555--------------|---9999--999---------------|
A|---2/3-333--2/3-3333--------------|---7777--555---------------|
E|----------------------------------|---------------------------|

quiero serrrr...                           un choferrrrr...
e|-------------------------------------|----------------------------------|
B|-------------------------------------|----------------------------------|
G|-------------------------------------|----------------------------------|
D|----3-3-3-3-3-3-3-3-3-3-3-3-3-3-3----|----6-6-6-6-6-6-6-6-6-6-6-6-6-6-6-|
A|----3-3-3-3-3-3-3-3-3-3-3-3-3-3-3----|----6-6-6-6-6-6-6-6-6-6-6-6-6-6-6-|
E|----1-1-1-1-1-1-1-1-1-1-1-1-1-1-1----|----4-4-4-4-4-4-4-4-4-4-4-4-4-4-4-|
      * * * * * *

psicotropical....
e|----------------------------------|---------------------------|
B|----------------------------------|---------------------------|
G|----------------------------------|---------------------------|
D|-----5-555----5-5555--------------|---9999--999---------------|
A|---2/3-333--2/3-3333--------------|---7777--555---------------|
E|----------------------------------|---------------------------|
.....
e|----------------------------------|---------------------------|
B|----------------------------------|---------------------------|
G|----------------------------------|---------------------------|
D|-----5-555----5-5555--------------|---9999--999---------------|
A|---2/3-333--2/3-3333--------------|---7777--555---------------|
E|----------------------------------|---------------------------|


SOLO
e|--------------------------------------------------------------|
B|-------8-6------88-6-8(10)-----8-6-------88-6-8(10)-8p6-8-----|
G|---4/5----4-4/5------------4/5-----4-4/5----------------------|
D|--------------------------------------------------------------|
A|--------------------------------------------------------------|
E|--------------------------------------------------------------|


e|--------------------------------------------------------------|
B|--------------------------------------------------------------|
G|---7(9)-7(9)-7(9)-7(9)-7(9)~~~7p5-7-5-5-----------------------|
D|----------------------------------------7p5-2-----------------|
A|--------------------------------------------------------------|
E|--------------------------------------------------------------|


e|------15-13--------1515-13-15(17)--15p13-15-13----1515-13-15--|
B|---13-------13--13-----------------------------13-------------|
G|--------------------------------------------------------------|
D|--------------------------------------------------------------|
A|--------------------------------------------------------------|
E|--------------------------------------------------------------|


e|---18T15p13-15-19T15p13-15--18T15p13-15-19T15p13-15-----------|
B|--------------------------------------------------------------|
G|--------------------------------------------------------------|
D|--------------------------------------------------------------|
A|--------------------------------------------------------------|
E|--------------------------------------------------------------|


e|---18T15p13-15-19T15p13-15--18T15p13-15-19T15p13-15-----------|
B|--------------------------------------------------------------|
G|--------------------------------------------------------------|
D|--------------------------------------------------------------|
A|--------------------------------------------------------------|
E|--------------------------------------------------------------|


e|---18T15p13-15-19T15p13-15--18T15p13-15-19T15p13-15-----------|
B|--------------------------------------------------------------|
G|--------------------------------------------------------------|
D|--------------------------------------------------------------|
A|--------------------------------------------------------------|
E|--------------------------------------------------------------|


e|---18T15p13-15-19T15p13-15--18T15p13-15-19T15p13-15/19--------|
B|--------------------------------------------------------------|
G|--------------------------------------------------------------|
D|--------------------------------------------------------------|
A|--------------------------------------------------------------|
E|--------------------------------------------------------------|

quiero serrrr...                           un choferrrrr...
e|-------------------------------------|----------------------------------|
B|-------------------------------------|----------------------------------|
G|-------------------------------------|----------------------------------|
D|----3-3-3-3-3-3-3-3-3-3-3-3-3-3-3----|----6-6-6-6-6-6-6-6-6-6-6-6-6-6-6-|
A|----3-3-3-3-3-3-3-3-3-3-3-3-3-3-3----|----6-6-6-6-6-6-6-6-6-6-6-6-6-6-6-|
E|----1-1-1-1-1-1-1-1-1-1-1-1-1-1-1----|----4-4-4-4-4-4-4-4-4-4-4-4-4-4-4-|
      * * * * * *

psicotropical....
e|----------------------------------|---------------------------|
B|----------------------------------|---------------------------|
G|----------------------------------|---------------------------|
D|-----5-555----5-5555--------------|---9999--999---------------|
A|---2/3-333--2/3-3333--------------|---7777--555---------------|
E|----------------------------------|---------------------------|
.....
e|----------------------------------|---------------------------|
B|----------------------------------|---------------------------|
G|----------------------------------|---------------------------|
D|-----5-555----5-5555--------------|---9999--999---------------|
A|---2/3-333--2/3-3333--------------|---7777--555---------------|
E|----------------------------------|---------------------------|

quiero serrrr...                           un choferrrrr...
e|-------------------------------------|----------------------------------|
B|-------------------------------------|----------------------------------|
G|-------------------------------------|----------------------------------|
D|----3-3-3-3-3-3-3-3-3-3-3-3-3-3-3----|----6-6-6-6-6-6-6-6-6-6-6-6-6-6-6-|
A|----3-3-3-3-3-3-3-3-3-3-3-3-3-3-3----|----6-6-6-6-6-6-6-6-6-6-6-6-6-6-6-|
E|----1-1-1-1-1-1-1-1-1-1-1-1-1-1-1----|----4-4-4-4-4-4-4-4-4-4-4-4-4-4-4-|
      * * * * * *

psicotropical....
e|----------------------------------|---------------------------|
B|----------------------------------|---------------------------|
G|----------------------------------|---------------------------|
D|-----5-555----5-5555--------------|---9999--999---------------|
A|---2/3-333--2/3-3333--------------|---7777--555---------------|
E|----------------------------------|---------------------------|
psicotropical....
e|----------------------------------|---------------------------|
B|----------------------------------|---------------------------|
G|----------------------------------|---------------------------|
D|-----5-555----5-5555--------------|---9999--999---------------|
A|---2/3-333--2/3-3333--------------|---7777--555---------------|


psicotropical....
e|----------------------------------|---------------------------|
B|----------------------------------|---------------------------|
G|----------------------------------|---------------------------|
D|-----5-555----5-5555--------------|---9999--999---------------|
A|---2/3-333--2/3-3333--------------|---7777--555---------------|
E|----------------------------------|---------------------------|

psicotropical....
e|----------------------------------|---------------------------|-------|
B|----------------------------------|---------------------------|-------|
G|----------------------------------|---------------------------|-------|
D|-----5-555----5-5555--------------|---9999--999---------------|---5---|
A|---2/3-333--2/3-3333--------------|---7777--555---------------|---3---|
E|----------------------------------|---------------------------|-------|
                                                                   FIN

* = palm muted
p = pulf off
/ = bend
~ = vibrato

            
            
Suggest correction
Creating personal tab
Creating personal tab
You can edit any tab online and save it as your Personal.

You can edit, replace or remove any tab part or add personal notes – all changes will be seen only by you.

Personal tabs can be accessed anytime from any device, even offline.
Learn more »
Give kudos to tab author, rate the tab!
1 2 3 4 5
comments
print report bad tab
guest
Wanna post a correction for this tab? Suggest correction