Oops, an error
Loading. Please wait.

Dame tab

33 views 1 this week
no commentswrite comment
1 2 3 4 5
3 more votes to show rating
add to favorites
×
Save as Personal and add changes to this tab that will be seen only by you. Learn more ›
×
You can save this tab as Personal to edit and correct it or add notes. All changes will be seen only by you. Learn more »
launch autoscroll
font size
0
reset
how to read this tab
guitar tuner
edit
Autoscroll
slow
fast
+/-
esc
set tempo
stop
Hola a todos, le dedico este Tab desde Argentina a toda España q ha sido mi hogar
durante 5 años. Ponedle un poco de distorsion y a disfrutar;-)

Intro:

         A             D              A              D
e|------------------------------------------------------------------------------|
b|------------------------------------------------------------------------------|
g|---------------------2--X--------------------------2---------4----------------|
D|----2--X-------------0--X---3--4----2--X-----------0---3--4-----3--4----------|
A|----0--X---3--4---------------------0--X--3--4--------------------------------|
E|------------------------------------------------------------------------------|


       A               D                 E

e|------------------------------------------------------------------------------------|
b|------------------------------------------------------------------------------------|
g|---------------------2--X-----------------------------------------------------------|
D|----2--X-------------0--X---3--4----------------------------(2)---------------------|
A|----0--X--3--4-------------------------2------------2---4---------4--3--2-----------|
E|---------------------------------------0---0--3--4-------------------------3--4-----|


Parte 1: Como Intro.

Di q soy el hombre de tu vida
aunque sepa q no es cierto me hace bien
Mojate los labios en mentiras para mi
y q asi ya tenga algo en q creer.

Dime q mi piel es cosa tuya
Q mis ojos son tus ojos y mi voz
Se ha enredado con tu pelo en una noche de estrellas
tan cercana como lo estamos tu y yo.

Puente:

    D                                          A (Riff1)
Y hagamos q el momento valga por el mundo entero
    D                             E
Aunque solo sea un instante nada mas.

Riff1:

e|-----------------------------|
b|-----------------------------|
g|-------------------(2)-------|
D|-----2-----------------------|    X 2 veces
A|-----0---0--3--4-------------|
E|-----------------------------|


Chorus:

 A                     D
Dame una noche de tu vida

 A                     D
Dame unas horas de tu amor

 A                     D                 A
Dame una noche de tu vida y mañana prohibido

     E
el decir adios.

Parte 2: Como Intro

Besame y no trases ningun plan
Por perfecto q te pueda parecer
Seamos esa historia q acabo
Tan temprano como quizo amanecer.

Besame y vuelveme a besar
Aunque sepamos q no habra proxima vez
Pero merecio la pena estar tumbados en la arena
Y ver salir el sol detras de nuestros pies.

Puente:
Chorus:


Muchas Gracias y Nos estamos viendo!!!!!!!!!!!!!!!!
Suggest correction
Creating personal tab
Creating personal tab
You can edit any tab online and save it as your Personal.

You can edit, replace or remove any tab part or add personal notes – all changes will be seen only by you.

Personal tabs can be accessed anytime from any device, even offline.
Learn more »
Give kudos to tab author, rate the tab!
1 2 3 4 5
comments
print report bad tab
guest
Wanna post a correction for this tab? Suggest correction