Oops, an error
Loading. Please wait.

Mestizo tab

29 views 1 this week
no commentswrite comment
1 2 3 4 5
3 more votes to show rating
add to favorites
×
Save as Personal and add changes to this tab that will be seen only by you. Learn more ›
×
You can save this tab as Personal to edit and correct it or add notes. All changes will be seen only by you. Learn more »
launch autoscroll
font size
0
reset
how to read this tab
guitar tuner
edit
Autoscroll
slow
fast
+/-
esc
set tempo
stop
Version para dos guitarras.
La guitarra solista realiza los Punteados de la Intro,
estribillo, solo y los riffs que acompañan a algunos
 solo de guitarra estara transcrito muy
muy pronto :P

Una segunda guitarra toca todos los acordes de
acompañ esta ultima, no especifico el ritmo
de la mano derecha, aunque,como regla general, suele
tapar la 5º cuerda y las demas las toca
al aire.
Tambien en las transiciones de A a D, suele tocar G
de la 6º cuerda.

Disfrutar de esta pedazo de cancion!!!


[Intro]

    A
e |------------------------------------------------|
B |------------------------------------------------|
G |---------------------------------------/7-7-7-6-|
D |----7-5h7---5-4-2--0-0h2------7-5h7-------------|
A |-0----0---0----------------0----0---0-----------|
E |------------------------------------------------|

                           D             C   G
e |------------------------------------------------|
B |------------------------------------------------|
G |--------------------------------------5---------|
D |----7-5h7---5-4-2-0-----0--0-0-4p2-0--5---5-----|
A |-0----0---0---------0h2---------------3---5-----|
E |------------------------------------------3-----|

    A
e |------------------------------------------------|
B |------------------------------------------------|
G |---------------------------------------/7-6-7/9-|
D |----7-5h7---5-4-2--0-0h2------7-5h7-------------|
A |-0----0---0----------------0----0---0-----------|
E |------------------------------------------------|

                           D             C   G
e |------------------------------------------------|
B |------------------------------------------------|
G |--------------------------------------5---------|
D |----7-5h7---5-4-2-0-----0--0-0-4p2-0--5---5-----|
A |-0----0---0---------0h2---------------3---5-----|
E |------------------------------------------3-----|


[Estribillo]

    Am     Em       G       D
e |---------------------------------|
B |-----1-------0-------3-------3---|
G |---2---2---0---0---0---0---2---2-|
D |-------------------------0-------|
A |-0-------------------------------|
E |---------0-------3---------------|

    Am     Em       G        D  C
e |-------------------------------|
B |-----1-------0-------3----7--5-|
G |---2---2---0---0---0---0--7--5-|
D |--------------------------7--5-|
A |-0------------------------5--3-|
E |---------0-------3-------------|


[Riff 1]

e |----------------------|
B |-3b4-3-1---3---1b2----|
G |---------2---2-----2--|
D |----------------------|
A |----------------------|
E |----------------------|


[Riff 2]

e |---------------------------|
B |-3b4b3p1-3p1b2---3---1h2---|
G |---------------2---2-----2-|
D |---------------------------|
A |---------------------------|
E |---------------------------|


[Riff 3]

e |----------------------|
B |----------------------|
G |-2h4p2---2------------|
D |-------4---4/2p-------|
A |----------------2-0---|
E |--------------------3-|


[Riff 4]

    A
e |----------------------------------------------------|
B |----------------------------------------------------|
G |---------------------------------------/4-0---0p2-2-|
D |----7-5h7---5-4-2--0-0h2------7-5h7---------2-------|
A |-0----0---0----------------0----0---0---------------|
E |----------------------------------------------------|


[Riff 5]

e |------------------------|
B |-3b4-4b3p1---3---1------|
G |-----------2---2--------|
D |------------------------|
A |------------------------|
E |------------------------|


[Riff 6]

e |-----------------------------|
B |-15b17b15-13----15----13b14--|
G |-------------14----14--------|
D |-----------------------------|
A |-----------------------------|
E |-----------------------------|


[Riff 7]

e |-------------------------|
B |-3b4-4b3p1--3-1----------|
G |----------------2-0------|
D |--------------------4-2--|
A |-------------------------|
E |-------------------------|

---------------------------------------------------


  [Intro]

       A
  Soy mestizo de alma soy mestizo de mente
  aunque no lo demuestre el color de mi piel
         D
  todos somos mestizos hijos de padre y madre,
                  [Riff 1]
C                 C G
  ¿quien no lo es?

         A
  Si lo puro es lo neutro yo prefiero lo impuro
  la mezcla es la clave dame combinación
          D
  no me cuentes milongas yo prefiero la vida
              [Riff 2]
C             C G A
  a todo color


Em2
  De rifles y faringes de estúpidos y lerdos
                                  [Riff 3]
  de lo absurdo de estar muertos
     G
  tomemos un momento y hablemos de todo ello
     D                        D1 D
  y dime como lo ves compañero


  [Estribillo]
            Am                          Em
  Y aunque siga viendo el mundo más que mal
          G                      D
  aunque ya no exista la revolución
          Am                        Em
  aunque pierda mis batallas y las tuyas también
   G         D C
     dame color
            Am                          Em
  Y aunque siga viendo el mundo más que mal
          G                      D
  aunque ya no exista la revolución
          Am                        Em
  aunque pierda mis batallas y las tuyas también
  G         D C A
    dame color


[Riff 4]

    A          C   G          D            C     G
e |----------------------------------------------------|
B |----------------------------------------------------|
G |---------------------------------------/4-0---0p2-2-|
D |----7-5h7---5-4-2--0-0h2------7-5h7---------2-------|
A |-0----0---0----------------0----0---0---------------|
E |----------------------------------------------------|


          A
  Ningún padre debería ver morir a sus hijos
                          [Riff 5]
  aunque los generales no opinen igual
        D
  solo tengo una bandera digna de sacrificio
                                      [Riff 6]
           C                          C       G
  y es la sabana que cubre el cuerpo de mi mujer
            A
  no hay honor en una bala de ningún tipo
                          [Riff 5]
  aunque los generales no opinen igual
          D
  no más lágrimas inútiles ni sangre por piel
          C         C    G [Riff 7]
  no más lágrimas inútiles

         Em2
  Más engaños y mentiras
  ya se que no es nada nuevo
                           [Riff 3]
  desde que hay vida en el mundo
  G
  bolas de papel con tu vida y tus sueños
     D                                            D1  D
  políticos corruptos llenos de fango hasta el cuello


  [Estribillo]
            Am                          Em
  Y aunque siga viendo el mundo más que mal
          G                      D
  aunque ya no exista la revolución
          Am                        Em
  aunque pierda mis batallas y las tuyas también
  G         D C
    dame color
            Am                          Em
  Y aunque siga viendo el mundo más que mal
          G                      D
  aunque ya no exista la revolución
          Am                        Em
  aunque pierda mis batallas y las tuyas también
  G         D D D
    dame color


  [Solo]

  (Mientras la 2º guitarra toca el solo, tocamos
  los acordes tapando las cuerdas con la mano derecha)
  A G D C C G A
  A G D C C G A


Em2
  De rifles y faringes de estúpidos y lerdos
                                  [Riff 3]
  de lo absurdo de estar muertos
     G
  tomemos un momento y hablemos de todo ello
     D                        D1 D
  y dime como lo ves compañero


            Am                          Em
  Y aunque siga viendo el mundo más que mal
          G                      D
  aunque ya no exista la revolución
          Am                        Em
  aunque pierda mis batallas y las tuyas también
  G         D C
    dame color
            Am                          Em
  Y aunque siga viendo el mundo más que mal
          G                      D
  aunque ya no exista la revolución
          Am                        Em
  aunque pierda mis batallas y las tuyas también
   G         D C A
     dame color

  Repetir


Em  : 0 2 2 0 0 0
Em2 : 0 2 2 0 3 3
A   : X 0 2 2 2 0
Am  : 0 0 2 2 1 0
C   : X 3 5 5 5 X
D   : X X 0 2 3 2
D   : X 5 7 7 7 X
D1  : X 5 7 7 8 X
G   : 3 2 0 0 3 3
G   : 3 5 5 4 3 3
Suggest correction
Creating personal tab
Creating personal tab
You can edit any tab online and save it as your Personal.

You can edit, replace or remove any tab part or add personal notes – all changes will be seen only by you.

Personal tabs can be accessed anytime from any device, even offline.
Learn more »
Give kudos to tab author, rate the tab!
1 2 3 4 5
comments
print report bad tab
guest
Wanna post a correction for this tab? Suggest correction