Oops, an error
Loading. Please wait.

San Pedro tab

72 views 3 this week
no commentswrite comment
1 2 3 4 5
3 more votes to show rating
add to favorites
×
Save as Personal and add changes to this tab that will be seen only by you. Learn more ›
×
You can save this tab as Personal to edit and correct it or add notes. All changes will be seen only by you. Learn more »
launch autoscroll
font size
0
reset
how to read this tab
guitar tuner
edit
Autoscroll
slow
fast
+/-
esc
set tempo
stop
San Pedro 
REVOLVER
Sur (2000)

Intro

G - C - G - C

G - D - Em - G - D - G

                                                                                
E||-------------------------|-----------------------|--------------------------|
B||-------------------------|-----------------------|--------------------------|
G||-------------------------|-----------------------|-----------0--2--0--------|
D||-------------------------|--------0--2--0--------|--1--2--4-----------4--2--|
A||-----0--2--3--2--0-------|--2--3-----------------|--------------------------|
E||--3-----------------3----|-----------------------|--------------------------|


                                                   
-----------------------|----------------------|--||
-----------------------|----------------------|--||
-----------------------|----------------------|--||
--0--------0--0--------|----------------------|--||
-----2--3--------------|--3----2----0---------|--||
-----------------------|-----------------3----|--||


Verso(1) 
G                   C            G      F#/G
Una noche de buen vino y de mejor compañia, 
Em                                  Am        Am/B 
anduvimos por la calle hasta aplastarnos el día,
C                  D(2)                G      F#/G
y nos bañamos vestidos como en un día de boda.
Em   G                    D                  G   C(arrastrando) D(2) 
En la villa de San Pedro vi el paraíso en su boca. 

G                  C              G    F#/G
Y su madre en la cocina preparándole la cena, 
Em                                   Am        Am/B
nadie cena como en casa si la que guisa es mamá.
C                        D      (2)            G   F#/G       
Y el mundo ajeno a lo nuestro iba a su velocidad, 
Em      G                   D                      C(arrastrando)D(2)
mientras que ella y yo anudados nos prometimos el mar. 

Estribillo
D               G                     D
Nos prometimos el mar, lleno de vida y de sal. 
             G                     C
Llenamos el corazón, violencia y calma a la vez 
               G                     D      
Él es el mismo traidor. Azul o verde da igual. 
               G            
Nos prometimos el mar. 

Verso(1)
Y me he pasado las horas apoyado en la farola 
que daba luz a su puerta, solo por verla pasar. 
Aguantando las tormentas por regalarle una rosa. 
Rosa que nunca la di, ya no la volví a ver más. 


Estribillo (X2) 

Verso (2)
C                  Am                Em
Y uno y uno no son dos, uno y uno es lo que es. 
C                      D                  G
Y un día y otro de mi senda, y ella la suya también. 
C                        D(2)
Y si el destino quisiera hacer con los dos un lazo, 
G                  D/F#            Em
me agarrare a su cintura y haré con un nudo con mis brazos.
G                  D               C (arrastrando)D(2) 
Por una noche sin luna, nos prometimos el mar. 

Solo

                                                                           
E||------------------------------------|----------------------------------|
B||--12\15~-15~15~-15~-15~-15~-15~-15~-|--12------------------------------|
G||------------------------------------|------14--14--12--14--14r-14--14--|
D||------------------------------------|----------------------------------|
A||------------------------------------|----------------------------------|
E||------------------------------------|----------------------------------|


                                                                            
----------------------------------|----------------------------------------|
----------------------------------|----------12-13-12----------------------|
--14--12--------------12h-14--14--|--12--14------------14-14-12------------|
----------14--12--14--------------|------------------------------14--12-12-|
----------------------------------|----------------------------------------|
----------------------------------|----------------------------------------|


                                                                
------------------------------------|--------------------------|
--12\15~-15~15~-15~-15~-15~-15~-15~-|--12----15----15r-15~-----|
------------------------------------|--------------------------|
------------------------------------|--------------------------|
------------------------------------|--------------------------|
------------------------------------|--------------------------|


                                                                          
--12----15----12h15p12----12------|--------------------------------------|
-----------------------15----15r--|--12--15--15r-15--13-13-12-12---------|
----------------------------------|------------------------------14--14--|
----------------------------------|--------------------------------------|
----------------------------------|--------------------------------------|
----------------------------------|--------------------------------------|


                                                                               
----------------------------------------|------------------------------------||
----------12-13-12----------------------|--12\15~-15~15~-15~-15~-15~-15~-15~-||
--12--14------------14-14-12------------|------------------------------------||
------------------------------14--12-12-|------------------------------------||
----------------------------------------|------------------------------------||
----------------------------------------|------------------------------------||

(Nota: Es posible q hayan errores en la segunda parte del solo. 
Tanto si es correcto como si no ruego se me informe. Gracias)


Verso (2)
La vida son cuatro días y yo por el tercero voy. 
Y ese día que me queda lo soñé para los dos. 
Pero si por una de estas ella no vuelve a pasar. 
Recordaré que en San Pedro, nos prometimos el mar. 


Estribillo (X2) 


Acordes
 
D(2):x54030
F#/D:200033
Am/B:x20210


Transcrito por:
SERGIO LEIVA
Correciones y/o sugerencias enviadlas al e-mail:
         
  sleiva17@
 


 
Cambia Network - Intercambio de Banners

            
            
Suggest correction
Creating personal tab
Creating personal tab
You can edit any tab online and save it as your Personal.

You can edit, replace or remove any tab part or add personal notes – all changes will be seen only by you.

Personal tabs can be accessed anytime from any device, even offline.
Learn more »
Give kudos to tab author, rate the tab!
1 2 3 4 5
comments
print report bad tab
guest
Wanna post a correction for this tab? Suggest correction