Oops, an error
Loading. Please wait.

Sara tab

91 views 1 this week
no commentswrite comment
1 2 3 4 5
3 more votes to show rating
add to favorites
×
Save as Personal and add changes to this tab that will be seen only by you. Learn more ›
×
You can save this tab as Personal to edit and correct it or add notes. All changes will be seen only by you. Learn more »
launch autoscroll
font size
0
reset
how to read this tab
guitar tuner
edit
Autoscroll
slow
fast
+/-
esc
set tempo
stop
 Version para guitarra acustica.
 Incluye Solo e intro para una segunda guitarra.
 Los acordes estan especificados al final del documento.


Into :  E1 E2 F#m A B
        E1 E2 F#m A B E A B
        [Riff Into]

E1
  Ella me dio cuanto se puede dar
E2
  eso decía y yo la creí
F#m                             E1  E2
  sabias mujeres, en eso de mentir
E1
  quién no se asusta al ver que la verdad
E2
  es tan distinta de lo que te dan
F#m                              E1
  sangre por agua, a punto de salir
F#m                     B B2 B
  si con su voz secó mi corazón
F#m                     B B2 B
  si entre sus uñas yo también estoy
        E1        E3   C#m B       F#  B
  para que ahora regresar  años después.


  E1   E2     C#m C#m2              A               E
  Sara,    Oh Sa  ra     qué es lo que viniste a buscar
           F#m                   B
  por qué diablos paró aquí tu tren
  E1   E2     C#m C#m2        A                   E
  Sara,    Oh Sa  ra    no repitas lo que te enseñé
        F#m                B     F#m   B
  la mejor agua está por caer.   Oh


E1
  Yo que vi tierra y allí me quede
E2
  como ambición tan solo envejecer
F#m                        E1 E2
  en una playa, vacía para mí
E1
  vuelvo al principio vuelvo a no creer
E2
  más que en mi perro buen amigo fiel
F#m                              E1
  quiero la arena, tan solo para mí
F#m                          B B2 B
  ahora de pronto vuelven a sangrar
F#m                      B B2 B
  las cicatrices que me regaló
        E1  E3   C#m  B       F#  B
  a la hora de partir años atrás.


     E1   E2     C#m C#m2           A               E
  Oh Sara,    Oh Sa   ra qué es lo que viniste a buscar
            F#m                   B
  por qué diablos paró aquí tu tren
  E1   E2     C#m C#m2        A                   E
  Sara,    Oh Sa  ra    no repitas lo que te enseñé
        F#m                B       F#m
  la mejor agua está por llover.   Oh
           A        B     E1
  Sara ha vuelto a la ciudad.


Bm          D  Bm          D   Bm                F#m
  Crudo destino volver a sentir  lo que se ha sentido
              G         A
  y mal no dejándote vivir
Bm          D    Bm           D   Bm                F#m
  Cuando la vea  se que volverán  mis dos piernas a temblar
  G                A            B
  mis dos piernas temblarán por Sara.


  [Solo]

   E1 E2 F#m A B E A B
   E1 E2 F#m A B E A B


F#m                     B B2 B
  si con su voz secó mi corazón
F#m                     B B2 B
  si entre sus uñas yo también estoy
           E1    E3   C#m  B       F#  B
  para que ahora regresar años después.


  E1   E2     C#m C#m2           A               E
  Sara,    Oh Sa   ra qué es lo que viniste a buscar
            F#m                   B
  por qué diablos paró aquí tu tren
  E1   E2     C#m C#m2        A                   E
  Sara,    Oh Sa  ra    no repitas lo que te enseñe
        F#m                B       F#m
  la mejor agua está por llover.   Oh
           A        B     E1  E2 F#m
  Sara ha vuelto a la ciudad.


           A        B     E1  E2 F#m
  Sara ha vuelto a la ciudad.            x3
                          [Riff rinal]


[Riff intro]

    E1            E2              F#m
e |---------------------------------------------------------|
B |---------------------------------------------------------|
G |---------------4----4-4h6-4------------------------------|
D |-2------2-4/6---------------6-5-4------------------------|
A |---------------------------------------------------------|
E |---------------------------------------------------------|

        A            B                    E
e |---------------------------------------------------------|
B |---------------------------------------------------------|
G |--------------4/6-4-----4----4---------------------------|
D |-4-6-7--------------------/6----4b6b4--2-----------------|
A |---------------------------------------------------------|
E |---------------------------------------------------------|


[Solo de guitarra]

                E1                    E2
e |--------------------------------------------------------------|
B |--------------------------------------------------------------|
G |-------9----11b13b11b13--------11b13b11--------11-11b13b11p9--|
D |--9h11---11---------------------------------------------------|
A |--------------------------------------------------------------|
E |--------------------------------------------------------------|

    F#m                                  A                B
e |--------------------------------------------------------------|
B |--------------------------------------------------------------|
G |----------------------------9-9----9h11---------11b13---------|
D |-11------9----9------9-9h11-----11---------------------9------|
A |-----------11-------------------------------------------------|
E |--------------------------------------------------------------|

                      E1                   A         B
e |--------------------------------------------------------------|
B |-------------------------------------10-9---------------------|
G |----------9-9----9h11-----9-9------9------11-9-9h11-9---------|
D |---9-9h11-----11--------------------------------------11-9----|
A |--------------------------------------------------------------|
E |--------------------------------------------------------------|

    E1                  E2                   F#m
e |-----------------------------------12-12----------------------|
B |--------------------------------------12----------------------|
G |-11b13b11b13-----11b13b11-----9-11b3-------13b11-9---9-9------|
D |------------------------------------------------- 11-----11-11|
A |--------------------------------------------------------------|
E |--------------------------------------------------------------|

                  A                B
e |--------------------------------------------------------------|
B |--------------------------------------------------------------|
G |-------9----9h11--11--11-9----9p11---11-11---11-11b13b11------|
D |--9h11---11----------------11---------------------------------|
A |--------------------------------------------------------------|
E |--------------------------------------------------------------|


e |--------------------------------------------------------------|
B |---------------------------------9-10h9-----------------------|
G |-9-11h9--------9---------9-9-11-------------9/11--------------|
D |---------11p9-------------------------------------------------|
A |--------------------------------------------------------------|
E |--------------------------------------------------------------|


[Riff final]

    E1            E2              F#m
e |---------------------------------------------------------|
B |---------------------------------------------------------|
G |---------------4----4-4h6-4------------------------------|
D |-2------2-4/6---------------6-5-4------------------------|
A |---------------------------------------------------------|
E |---------------------------------------------------------|


[Acordes]

E   : 0 2 2 1 0 0
E1  : 0 7 6 4 5 X
E2  : 0 7 6 4 4 X
E3  : 0 6 6 4 5 X
F#m : 2 4 4 2 2 2
A   : X 0 2 2 2 0
B   : X 2 4 4 4 2
B2  : X 2 4 4 5 2
C#m : X 4 6 6 5 2
C#m2: X 4 6 6 4 2
Bm  : X 2 4 4 3 2
D   : X X 0 2 3 2
G   : 3 2 0 0 3 3

            
            
Suggest correction
Creating personal tab
Creating personal tab
You can edit any tab online and save it as your Personal.

You can edit, replace or remove any tab part or add personal notes – all changes will be seen only by you.

Personal tabs can be accessed anytime from any device, even offline.
Learn more »
Give kudos to tab author, rate the tab!
1 2 3 4 5
comments
print report bad tab
guest
Wanna post a correction for this tab? Suggest correction