Oops, an error
Loading. Please wait.

Generation Rock tab

version 1
version 1

Whole song

Interactive

13,500 views 12 this week
5 commentsread comments
1 2 3 4 5
x 4
add to favorites
×
Save as Personal and add changes to this tab that will be seen only by you. Learn more ›
×
You can save this tab as Personal to edit and correct it or add notes. All changes will be seen only by you. Learn more »
launch autoscroll
font size
0
reset
how to read this tab
guitar tuner
edit
Autoscroll
slow
fast
+/-
esc
set tempo
stop
Author
Difficulty
Song: Generation Rock
Artist: Revolverheld
From: Guitar Hero III
Tabbed by: David Chiaramonte

I just started playing power chords along side the song until I found out which ones to 
and when. I've got the intro and part of the chorus down. tell me what you think.

Tab Legend

b=half bend
#b#=bend to that number
p=pull off

intro
e|----------------------------------6---------------------|
B|------7---7---------------------7---7-------------------|
G|--------8---(x7)--then-------8---------(x1)-------------| x2
D|----9---------------------------------------------------|
A|--------------------------------------------------------|
E|--------------------------------------------------------|

final played intro
e|-----------------------|
B|------7---7------------|
G|--------8---(x7)-------|
D|----9------------------|
A|-----------------------|
E|-----------------------|

at the end of the last intro (also intro to chorus)
e|-----------------------|
B|-----------------------|
G|---6b8-----------------| x1
D|-----------------------|
A|-----------------------|
E|-----------------------|
  BEND SLOWLY!!!

chorus
e|-------------------------------7b-----------------------|
B|--------------------------------------------------------|
G|--------------------------------------------------------| x3
D|-6-6-6-6--------------2-2-2-2---------------------------|
A|-6-6-6-6--------------2-2-2-2---------------------------|
E|-4-4-4-4---7p4--7p4---0-0-0-0---------------------------|

thats it. it sounds right on my guitar. the bends might be a little off, but thats about 
everything else sounds right. comment it if you have suggestions.

            
            
Suggest correction
Creating personal tab
Creating personal tab
You can edit any tab online and save it as your Personal.

You can edit, replace or remove any tab part or add personal notes – all changes will be seen only by you.

Personal tabs can be accessed anytime from any device, even offline.
Learn more »
comments
print report bad tab
5 comments total. Showing first comments.
0 reply
HalfPastDead 10 May 31, 2008 01:20 PM

instead of bending the seven on e try this....sounds much better...only downside is that its a pain in the ass....oh well...its what i do


e |----------|
B |---17-----|
G |---20b----|
D |----------|
A |----------|
E |----------|

tab the rest so i dont have to.

0 reply
Luzifer2111 1,441 Nov 09, 2008 11:12 PM

Thats the same Joke like the other Tab of this song.....
HAHAHAHAHAHAH

0 reply
Venom251 31 Mar 20, 2009 05:01 PM

And I thought my jokes were bad

guest
You may want to rate the tab now too:
select rating
Wanna post a correction for this tab? Suggest correction