Oops, an error
Loading. Please wait.

Generation Rock Tab

version 2
version 2

Whole song

Interactive

3,654 views 3 this week
1 commentread comment
1 2 3 4 5
2 more votes to show rating
add to favorites
launch autoscroll
font size
0
reset
how to read this tab
guitar tuner
Autoscroll
slow
fast
+/-
esc
set tempo
stop
Help us to improve Ultimate-Guitar.com Take our survey!
×
Author
Difficulty
intermediate
Well this is how I play Generation Rock by Revolverheld.

Intro, I don’t think it is this but its pretty right:
|------------|-----6----|
|---7---7----|---7---7--|
|-----8---x6-|----------|       x2
|-9----------|-9--------|
|------------|----------| 
|------------|----------|
             First time, but not second time.
Pre-chorus:
|----------------------------| 
|----------------------------|
|-------9------6------4------|
|-6-----9------6------4------|  x2 
|-6-x16-7---x8-4---x3—2---x3-| 
|-4--------------------------| 

Chorus:
|-------------------------9-| 
|---------------------------| 
|---------------------------| 
|-6-6-6-6---------2-2-2-2---|   x2
|-6-6-6-6---------2-2-2-2---|
|-4-4-4-4-7p4-7p4-0-0-0-0---| 

Bridge:
|------------------------------------------| 
|------------------------------------------|
|-------9------6------4--------------------|
|-6-----9------6------4------4-X-X-4-X-X-2-|
|-6-x16-7---x8-4---x3—2---x3-4-X-X-4-X-X-2-| 
|-4--------------------------2-X-X-2-X-X-0-| 

Verse2 this is not the original, but it sounds better:
|-----7----7-----|-------10-----10------|
|-------8----8-x2|----------11-----11-x2|
|-9-9------------|-12-12----------------|
|----------------|----------------------|
|----------------|----------------------|
|----------------|----------------------| 

Bridge2:
|-----------------------------|
|-----------------------------|
|-----------------------------|
|-----------------------------|
|-----------------------------|
|-4---x8-3---x8-7---x8-9---x8-|


Jam:
|-8---x16-| 
|---------| 
|---------| 
|---------| 
|---------| 
|---------| 
Bend it slowly more and more.

Jam2:
|-9---x16-|
|---------| 
|---------| 
|---------| 
|---------|
|---------| 
Bend it slowly more and more.


Intro
Pre-chorus
Chorus
Bridge
Intro
Pre-chorus
Chorus
Bridge
Verse2 Don’t know how many times
Bridge2
Jam
Chorus
Bridge
Jam2
Chorus
Bridge


Thank you for watching // Robert Asph
Suggest correction
Give kudos to tab author, rate the tab!
1 2 3 4 5
comments
print report bad tab
1 comment total.
0 reply
dranstheman 746 May 25, 2013 08:01 PM

I think the bridge sounds better as:


|------------------------------------------|
|------------------------------------------|
|--------------4---------------------------|
|-6-----4------4------2------4-X-X-4-X-X-2-|
|-6-x16-4---x8-2---x3—2---x3-4-X-X-4-X-X-2-|
|-4-----2-------------0------2-X-X-2-X-X-0-|

guest
You may want to rate the tab now too:
select rating
Wanna post a correction for this tab? Suggest correction