Oops, an error
Loading. Please wait.

Hamburg Hinter Uns Chords

version 2
version 2

Whole song

2,229 views 36 this week
no commentswrite comment
1 2 3 4 5
excellent!
x 6
add to favorites
launch autoscroll
font size
0
reset
transpose
0
reset
simplify chords
display chords
guitar tuner
Autoscroll
slow
fast
+/-
esc
set tempo
stop
Help us to improve Ultimate-Guitar.com Take our survey!
×
Difficulty
Capo
novice
1st fret
Artist: Revolverheld
Song: Hamburg hinter uns
Tabbed by Max H.

Standard Tuning
Capo 1st

Chord Used:
     Em7          G/F#          G          Cadd9         G/B           D          Dsus4  
e|----3---|  e|----3---|  e|----3---|  e|----3---|  e|----3---|  e|----2---|  e|----3---|
B|----3---|  B|----3---|  B|----3---|  B|----3---|  B|----3---|  B|----3---|  B|----3---|
G|----0---|  G|----0---|  G|----0---|  G|----0---|  G|----0---|  G|----2---|  G|----2---|  
D|----2---|  D|----0---|  D|----0---|  D|----2---|  D|----0---|  D|----0---|  D|----0---|
A|----2---|  A|----0---|  A|----2---|  A|----3---|  A|----2---|  A|----x---|  A|----x---|  
E|----0---|  E|----2---|  E|----3---|  E|----x---|  E|----x---|  E|----x---|  E|----x---|  


Intro:
e:|| ----3-------3---|----3-------3---|-------3--------|------------------ ||
B:|| ------3-------3-|------3-------3-|---3-------3----|------------------ ||
G:||.--0-------0-----|--0--------0----|-0---0-------0--|--------0------0--.||
D:||.----------------|----------------|----------------|------2--2---4--4-.||
A:|| ----------------|--------3-------|2---------------|0h2-3-----3s5------||
E:|| 0-------2-------|3---------------|----------------|------------------ ||
     Em7     G/F#     G       Cadd9    G/B                 Cadd9    Dadd9 

Verse 1: 
Em7    G/F#            G            Cadd9
Dieser Winter hier ist schwierig zu ertragen 
G/B                           Caad9        D
 Die grauen Straßen an diesen sonnenleeren Tagen 
Em7            G/F#          G               Cadd9
Ich werd nicht warten bis es aufhört hier zu regnen 
G/B                               Cadd9         D
 Ich will hier raus, weit weg, zurück nach Kalifornien.

Chorus:
           Cadd9          G
Wir lassen Hamburg hinter uns 
           Cadd9          G
Machen das Leben wild und bunt 
           Cadd9    
Auf nach Los Angeles
G                   D Dsus4 D
Wir brauchen keinen Grund 
           Cadd9          G
Wir lassen Hamburg hinter uns 
           Cadd9          G
Machen das Leben wild und bunt 
           Cadd9
Auf nach Los Angeles 
G              D Dsus4 D
Jetzt und ohne Grund

Verse 2:
Em7        G/F#              G             Cadd9
 Lass dich treiben, um nicht wieder nur zu Planen 
G/B                         Cadd9           D
 Reiß dich los, denn es ist Zeit mal was zu wagen 
Em7            G/F#              G             Cadd9
 Spring über’n Schatten und fang endlich an zu leben 
G/B                                Cadd9         D
 Ich will jetzt los und nicht mehr länger drüber reden

Chorus:
           Cadd9          G
Wir lassen Hamburg hinter uns 
           Cadd9          G
Machen das Leben wild und bunt 
           Cadd9    
Auf nach Los Angeles
G                   D Dsus4 D
Wir brauchen keinen Grund 
           Cadd9          G
Wir lassen Hamburg hinter uns 
           Cadd9          G
Machen das Leben wild und bunt 
           Cadd9
Auf nach Los Angeles 
G              D Dsus4 D
Jetzt und ohne Grund

Solo: 
3x                                
e:|| 11-11-11-11-11-11-11-11-|9-9-9-9-8-8-8-8- || 
B:|| ------------------------|---------------- || 
G:||.------------------------|----------------.||
D:||.------------------------|----------------.||
A:|| ------------------------|---------------- ||
E:|| ------------------------|---------------- ||

e:|| ------------------------|---------------- ||
B:|| 11-11-11-11-11-11-11-11-|8-8-8-9-9-9-9-9- ||
G:||.------------------------|----------------.||
D:||.------------------------|----------------.||
A:|| ------------------------|---------------- ||
E:|| ------------------------|---------------- ||

Chorus: 2x
           Cadd9          G
Wir lassen Hamburg hinter uns 
           Cadd9          G
Machen das Leben wild und bunt 
           Cadd9    
Auf nach Los Angeles
G                   D Dsus4 D
Wir brauchen keinen Grund 
           Cadd9          G
Wir lassen Hamburg hinter uns 
           Cadd9          G
Machen das Leben wild und bunt 
           Em7
Auf nach Los Angeles 
G              D Dsus4 D
Jetzt und ohne Grund
comments
print report bad tab
I want to post or [tab]
guest
You may want to rate the tab now too:
select rating
Please do not post tabs as comments. Select "correction" instead!