Oops, an error
Loading. Please wait.

Spinner tab

version 1
version 1

Whole song

Interactive

37,346 views 15 this week
2 commentsread comments
1 2 3 4 5
x 6
add to favorites
×
Save as Personal and add changes to this tab that will be seen only by you. Learn more ›
×
You can save this tab as Personal to edit and correct it or add notes. All changes will be seen only by you. Learn more »
launch autoscroll
font size
0
reset
how to read this tab
guitar tuner
edit
Autoscroll
slow
fast
+/-
esc
set tempo
stop
Revolverheld - Spinner
Capo II


Verse / Chorus

B [x20033]
G [320033]
C [x32033]
D [xx0033]

Pre Chorus :

B [x20033]
----------
C [x32033]
----------

Intro:
---------------------------------------|
----3--3-----3--3-----3--3----3---3----|
---0----0---0----0---0----0--0-0-0-0---|
--4--4---4-4--4---4-4--4---4-----------|
-------------------3--------3---5------|
-0--------3----------------------------|


Strophe

B                        G
Er ist allein in seinem Zimmer
                   C
steht vor dem Spiegel
                   D
Und singt seine Lieder

Sie hat Jahre lang geschrieben
An alle Firmen ihrer Stadt
Doch es kam nie was wieder

Er will eigentlich schon immer
Die ganze Welt bereisen
Spart alles was er hat

Sie spielt tausend kleine Rollen
Und will nach Hollywood
hat das alles hier so satt


Pre Chorus

B-----
Lass dein altes Leben hinter dir
C-----
Und geh durch diese neue Tür


Chorus

B                       G
Das geht raus an alle Spinner
                  C
Wir sind die Gewinner
                 D
Wir kennen keine Limits
Ab Heute - für immer


B                      G
Das geht raus an alle Spinner
                    C
Weil alles ohne Sinn wär
       D
Ohne Spinner wie dich und mich

usw......


Riff Refrain:

-12--------12--------14-----12--------12--------14-------|
----10--------10--------10-----10--------10--------10----|
-------13--------13---------------13--------13-----------|
---------------------------------------------------------|
---------------------------------------------------------|
---------------------------------------------------------|

-12--------12--------12-----10--------10--------10-------|
----10--------10--------10-----10--------10--------10----|
-------13--------13---------------13--------13-----------|
---------------------------------------------------------|
---------------------------------------------------------|
---------------------------------------------------------|

            
            
Suggest correction
Creating personal tab
Creating personal tab
You can edit any tab online and save it as your Personal.

You can edit, replace or remove any tab part or add personal notes – all changes will be seen only by you.

Personal tabs can be accessed anytime from any device, even offline.
Learn more »
comments
print report bad tab
2 comments total.
+1 reply
Synatic 10 Mar 28, 2010 04:08 PM

Hey,
erstmal ein großes Danke für den Tab, der hat mir sehr weitergeholfen! Ich hätte allerdings noch einen kleinen Verbesserungsvorschlag für das Intro:

---------------------------------------|
----3--3-----3--3-----3--3----3---3----|
--0--0--0--0--0--0--0--0--0--0-0-0-0---|
---4--4-----4--4-----4--4--------------|
-------------------3--------3---5------|
-0--------3----------------------------|


Lg, Jan

0 reply
florianfaber9 10 Jun 15, 2014 10:12 AM

I think his correction is right but also nice tab tanks

guest
You may want to rate the tab now too:
select rating
Wanna post a correction for this tab? Suggest correction