Oops, an error
Loading. Please wait.

Lie Awake Tab

version 1
version 1

Whole song

Interactive

425 views 1 this week
no commentswrite comment
1 2 3 4 5
excellent!
x 1
add to favorites
launch autoscroll
font size
0
reset
how to read this tab
guitar tuner
Tab Pro tools
  • play this tab
  • loop segment
  • change instrument
  • show fretboard
  • metronome
Autoscroll
slow
fast
+/-
esc
set tempo
stop
Contributor
Title: Lie Awake
Artist: Rex Goudie
Tabbed by: _O_L_P_

Standard Tuning: e,A,D,G,B,E

Guitar I: distorted
Guitar II: distorted

Intro/1st verse:
Guitar I
e------------------------------------------------------------------|
B------------------------------------------------------------------|
G------------------------------------------------------------------|
D------------------------------------------------------------------|x3
A------------------------------------------------------------------|
E--1-1-1-1-1-1-1-1-5-5-5-5-5-5-5-5-6-6-6-6-6-6-6-6-7-7-7-7-7-7-7-7-|
pm * * * * * * * * * * * * * * * * * * * * * * * * * * * * * * * *

Pre-chorus:
Guitar I
e------------------------------------------------------------------|
B------------------------------------------------------------------|
G------------------------------------------------------------------|
D------------------------------------------------------------------|x1
A------------------------------------------------------------------|
E--6-6-6-6-6-6-6-6-5-5-5-5-5-5-5-5-8-8-8-8-8-8-8-8-7-7-7-7-7-7-7-7-|
pm * * * * * * * * * * * * * * * * * * * * * * * * * * * * * * * *

Pre-chorus continued:
Guitar I
e------------------------------------------------------|
B------------------------------------------------------|
G------------------------------------------------------|
D------------------------------------------------------|x1
A------------------------------------------------------|
E--6-6-6-6-6-6-6-6-5-5-5-5-5-5-5-5-8-8-8-8-8-8-8-8-8-8-|
pm * * * * * * * * * * * * * * * * * * * * * * * * * * 

Chorus:
Guitar I,II
e-----------------------------------------------------------------|
B-----------------------------------------------------------------|
G-5-5-5-5-5-5-5-5---------------------------------5-5-5-5-5-5-5-5-|
D-5-5-5-5-5-5-5-5-7-7-7-7-7-7-7-7-3-3-3-3-3-3-3-3-5-5-5-5-5-5-5-5-|x1
A-3-3-3-3-3-3-3-3-7-7-7-7-7-7-7-7-3-3-3-3-3-3-3-3-3-3-3-3-3-3-3-3-|
E-----------------5-5-5-5-5-5-5-5-1-1-1-1-1-1-1-1-----------------|

Chorus continued:
Guitar I,II
e-----------------------------------------------------------------|
B-----------------------------------------------------------------|
G-----------------------------------------------------------------|
D-8-8-8-8-8-8-8-8-7-7-7-7-7-7-7-7-3-3-3-3-3-3-3-3-2-2-2-2-2-2-2-2-|x1
A-8-8-8-8-8-8-8-8-7-7-7-7-7-7-7-7-3-3-3-3-3-3-3-3-2-2-2-2-2-2-2-2-|
E-6-6-6-6-6-6-6-6-5-5-5-5-5-5-5-5-1-1-1-1-1-1-1-1-0-0-0-0-0-0-0-0-|

Continued:
Guitar I,II
e---------------------------------------------------------------------|
B---------------------------------------------------------------------|
G-7-7-7-7-7-7-7-7-7-7-7-7-7-7-7-7-5-5-5-5-5-5-5-5-4-4-4-4-4-4-4-4-3~~-|
D-7-7-7-7-7-7-7-7-7-7-7-7-7-7-7-7-5-5-5-5-5-5-5-5-4-4-4-4-4-4-4-4-3~~-|x1
A-5-5-5-5-5-5-5-5-4-4-4-4-4-4-4-4-3-3-3-3-3-3-3-3-2-2-2-2-2-2-2-2-1~~-|
E---------------------------------------------------------------------|

Post-Chorus:
Guitar II
e----------------------------------------|
B----------------------------------------|
G--10-10-10-9-9-9-9-9-10-10-10-9-9-9-9-9-|
D----------------------------------------|
A----------------------------------------|
E----------------------------------------|
pm * * * * * * * * * * * * * * * * * * *

Guitar I
e----------------------------------|
B----------------------------------|
G----------------------------------|
D----------------------------------|
A----------------------------------|
E--1-1-1-1-1-1-1-1-1-1-1-1-1-1-1-1-|
pm * * * * * * * * * * * * * * * * 

2nd verse:
Guitar II
e--------------------|  |----------------------------------------|
B--------------------|  |----------------------------------------|
G--10-10-10-9-9-9-9-9|x2|12-12-12-10-10-10-10-10-7-7-7-9-9-9-9-9-|x1
D--------------------|  |----------------------------------------|    x2
A--------------------|  |----------------------------------------|
E--------------------|  |----------------------------------------|
pm *  *  *  * * * * *    *  *  *  *  *  *  *  *  * * * * * * * *

Pre-Chorus
Guitar I
e-----------------------------------------------------------------------|
B-----------------------------------------------------------------------|
G---------------5-5---5--4-4------------------5-5--5-5--5-5-5-5-5-5-5-5-|
D-8-8----7-7----5-5---5--4-4----8-8----7-7----5-5--5-5--5-5-5-5-5-5-5-5-|
A-8-8----7-7----3-3---3--2-2----8-8----7-7----3-3--3-3--3-3-3-3-3-3-3-3-|
E-6-6----5-5--------------------6-6----5-5------------------------------|

Guitar II
e-----------------------------------------------------------------------
B-----------------------------------------------------------------------
G--10-10-10-10-10-10-10-12-12-12-12-12-12-12-12-10-10-10-10-10-10-10-10-
D-----------------------------------------------------------------------
A-----------------------------------------------------------------------
E-----------------------------------------------------------------------
pm *  *  *  *  *  *  *  *  *  *  *  *  *  *  *  *  *  *  *  *  *  *  *

e------------------------------------------------------------------
B------------------------------------------------------------------
G--9-9-9-9-9-9-9-9-10-10-10-10-10-10-10-10-12-12-12-12-12-12-12-12-
D------------------------------------------------------------------
A------------------------------------------------------------------
E------------------------------------------------------------------
pm * * * * * * * * *  *  *  *  *  *  *  *  *  *  *  *  *  *  *  *  

e----------------------------------|
B----------------------------------|
G--10-9--10-9--10-9-10-9-10-9-10-9-|
D----------------------------------|
A----------------------------------|
E----------------------------------|
pm *  *  *  *  

Chours again

Bridge:
Guitar I,II
e-------------------------------------------------|
B-------------------------------------------------|
G-7--7--7--7--7--7--7--7--5--5--5--5--4--4--4--4--|
D-7--7--7--7--7--7--7--7--5--5--5--5--4--4--4--4--|
A-5--5--5--5--4--4--4--4--3--3--3--3--2--2--2--2--|
E-------------------------------------------------|

Bridge continued:
e-------------------------------------------------|
B-------------------------------------------------|
G-7--7--7--7--7--7--7--7--------------------------|
D-7--7--7--7--7--7--7--7--8--8--8--8--8--8--8--8--|
A-5--5--5--5--4--4--4--4--8--8--8--8--8--8--8--8--|
E-------------------------6--6--6--6--6--6--6--6--|

1st verse
Chorus

Both guitars end on
e-----|
B-----|
G-3~~-|
D-3~~-|
A-1~~-|
E-----|
comments
We did not receive enough feedback on this tab! Please rate:
print report bad tab
1 2 3 4 5
I want to post or [tab]
guest
You may want to rate the tab now too:
select rating
Please do not post tabs as comments. Select "correction" instead!