Oops, an error
Loading. Please wait.

Belly The Grass Stains chords

214 views 69 this week
no commentswrite comment
1 2 3 4 5
2 more votes to show rating
add to favorites
×
Save as Personal and add changes to this tab that will be seen only by you. Learn more ›
×
You can save this tab as Personal to edit and correct it or add notes. All changes will be seen only by you. Learn more »
launch autoscroll
font size
0
reset
transpose
0
reset
display chords
guitar tuner
edit
Autoscroll
slow
fast
+/-
esc
set tempo
stop
Strumming
There is no strumming pattern for this song yet. and get +5 IQ
E
Grass stains all on my blue jeans
                A
They used to be new jeans
                    G#
But now they’re all fucked


E
Heartbreak

Summer’s gone and so is she
                    A
The only one left I know is me
                 G#
But I still feel fucked


E
Pizza box

Wedding ring left amongst the crust
                                A
Remember when your wedding ring began to rust
                        G#      A
And the monalisa wasn’t real


   E
2PM

Why's Madonna on the radio
                          A
And where on earth did my baby go
              Am   
Was she ever even mine
             F    E       F E
Was she ever even mine


E
So I’m sorry that you’re tired

And you don’t wanna leave
          
But girl, I can’t stop your crying

It’s a shame that you can’t see

         A
It’s all here for you
         Am
It’s all here for you


            E
I heard she hates her dad

Even though he bought that Mercedes Benz

She likes to stay alone
                      A
And do drugs with her friends

Pass out in the afternoon
                    Am
And wake up next to them

She needs to know herself
                    F    E       F E
Before she falls in love again


E  D A  Am  F E  F E
e|---------------------|--------------------|----------------------------------|
B|----7--9--7----7h9---|---7--9--7----7h9---|---7--9--7----7h9-----------------|
G|-------------9-------|-----------9--------|------------9---------------------|
D|---------------------|--------------------|----------------------------------|
A|---------------------|--------------------|----------------------------------|
E|---------------------|--------------------|----------------------------------|

e|---------------------------------------------------------------------------|
B|----7--9--7-----/10-9-7----------------------------------------------------|
G|-------------9-----------9---6-----5---------------------------------------|
D|---------------------------------------------------------------------------|
A|---------------------------------------------------------------------------|
E|---------------------------------------------------------------------------|


E
Swimming pools

Rich youth and being cool
                         A
We didn’t learn a single thing in school
                  G#      A
But daddy already payed

             E
Whip the Benz

Paddle to the floor in your new heels
                             A
Wish you could know just how happiness feels
                        Am
But at least you’re all alone
                    F   E
But at least you’re all alone


************************************

| h   Hammer-on
| /   Slide up

************************************

            
            
Suggest correction
Creating personal tab
Creating personal tab
You can edit any tab online and save it as your Personal.

You can edit, replace or remove any tab part or add personal notes – all changes will be seen only by you.

Personal tabs can be accessed anytime from any device, even offline.
Learn more »
Give kudos to tab author, rate the tab!
1 2 3 4 5
comments
print report bad tab
guest
You may want to rate the tab now too:
select rating
Wanna post a correction for this tab? Suggest correction