Oops, an error
Loading. Please wait.

5 Estrellas chords

13 views 1 this week
no commentswrite comment
1 2 3 4 5
3 more votes to show rating
add to favorites
×
Save as Personal and add changes to this tab that will be seen only by you. Learn more ›
×
You can save this tab as Personal to edit and correct it or add notes. All changes will be seen only by you. Learn more »
launch autoscroll
font size
0
reset
transpose
0
reset
display chords
guitar tuner
edit
Autoscroll
slow
fast
+/-
esc
set tempo
stop
Strumming
There is no strumming pattern for this song yet. and get +5 IQ
durante la estrofa va haciendo este arpegio

    Am       F       E             Am        F      E
e-------------------------------------------------------
B--------1---------------------------1------------------
G------2---------------------------2---2----------------
D----2---------------------------2----------------------
A--0------------3------2-------0---------------3-------2
E------------1------0-----------------------1------0----


señor turista, haga un favor
con ese dolar vivo mejor
no se dé vuelta, soy lo peor
patio trasero de mi nación

no se me olvide, fotos sacar
risas sin dientes, gente sin pan
mande por fax o por internet
pero no deje solo su hotel

bajo autopistas de hormigón
hay otra vida, no ves el sol
me gustaría un día volar
sentir de cerca la fuerza del mar

Dm                  F
Tanto bajo el cielo

y yo siento tanta desolación

    Am       F       E             Am        F      E
e-------------------------------------------------------
B--------1---------------------------1------------------
G------2---------------------------2---2----------------
D----2---------------------------2----------------------
A--0------------3------2-------0---------------3-------2
E------------1------0-----------------------1------0----

Dm              F
Tanto bajo el cielo


Am          F    E
Mi casa es la estación
Am                F    E
de almohada tengo un cartón
Am
cinco estrellas tu refugio
F            E              Am
y en mi cielo hay un millón

tienen vergüenza de lo que soy
nuestra es la tierra que nos parió
hijo del viento y del arrabal
cara que amarga cualquier postal

señor turista compreme hoy
tal vez mañana yo esté mejor
y a su país voy a llegar
con un cámara y un celular.

Tanto bajo el cielo
y yo siento tanta desolación

Tanto bajo el cielo

Mi casa es la estación
de almohada tengo un cartón
cinco estrellas tu refugio

y en mi cielo hay un millón.

            
            
Suggest correction
Creating personal tab
Creating personal tab
You can edit any tab online and save it as your Personal.

You can edit, replace or remove any tab part or add personal notes – all changes will be seen only by you.

Personal tabs can be accessed anytime from any device, even offline.
Learn more »
Give kudos to tab author, rate the tab!
1 2 3 4 5
comments
print report bad tab
guest
Wanna post a correction for this tab? Suggest correction