Oops, an error
Loading. Please wait.

Otra Vez tab

47 views 1 this week
no commentswrite comment
1 2 3 4 5
3 more votes to show rating
add to favorites
×
Save as Personal and add changes to this tab that will be seen only by you. Learn more ›
×
You can save this tab as Personal to edit and correct it or add notes. All changes will be seen only by you. Learn more »
launch autoscroll
font size
0
reset
how to read this tab
guitar tuner
edit
Autoscroll
slow
fast
+/-
esc
set tempo
stop
esta es la cancion otra vez de rey toro espero q les guste
1/---------------------------------------------------
2/---------------------------------------------------
3/--------------------------------------------------- X4
4/----------2---------2-----------------------------
5/------2----------2-------------------------------
6/---0----------3--------3--2--1------------------

1/--------------------------------------------------------
2/--------------------------------------------------------
3/----------0----------------------------0----------------
4/-------------------2-----------------------------2------
5/-----2----------2-----------------2----------2----------
6/--0----------3--------3--2--0----------3---------3-2-0---

1/---------------------------------------------------------
2/---------------------------------------------------------
3/----------0---------0-------------------0---------0
4/----------------------------------------------------
5/-----2----------2-----------------2----------2--------
6/--0----------3--------3--2--0----------3------------3-2-0---

1/---------------------------------
2/----------0----------------------
3/----------0---------0------------
4/----------------------------------
5/-----2----------2----------------
6/--0----------3--------3--2--0---

1/----------0---------------------------0--------------
2/----------0---------0----------------0----0--------
3/-----------------------------------------------------
4/----------------------------------------------------
5/-----2----------2-----------------2--------------------
6/--0----------3---------3--2--0----------------3--2--0-

1/----------0----------0----------------0---------
2/----------0----------0----------------0---------
3/-------------------------------------------------
4/-------------------------------------------------
5/-----2----------2-----------------2-------------
6/--0----------3--------3--2--0------------------


4/-------3--------5-------------
5/----2------3------------------
6/-------------------------------
Con este pique que no se si esta bien...
pasa a la parte cantada..
y ahí se repite todo...


Cuando se pone Pesado..entra con
?Otra vez , otra vez , otra vez....?
RIFF 1
1/----------------------------------------/
2/----------------------------------------/
3/----------------------------------------/
4/---2--2--2----5----2--2----5--4-----/ X3
5/---2--2--2----5----2--2----5--4-----/
6/---0--0--0----3----0--0----3--2-----/

?y pensar que un tiempo atrás
no cabía en su mente la mitad
y ahora solo pide mas
mas del mismo veneno?


RIFF 2
3/----------------------------------/
4/---2--2--2----5-----7-----8------/
5/---2--2--2----3-----5-----6------/
6/---0--0--0-------0-----0---------/
Cada 3 ?RIFF 1? hace esto


RIFF 3
1/--------------------------------/
2/--------------------------------/
3/--------------------------------/Cada 3 de estos
4/---5---------------------------/ se hace el RIFF 4
5/---5---2--2--2---2-2-----------/ que viene a continuacion
6/---3---0--0--0---0-0-----------/
?pero no, no sé si quiero, no, no sé si puedo conseguir?

RIFF 4
1/----------------------------------/
2/----------------------------------/
3/----------------------------------/
4/---5-------7----7----8----------/
5/---3-------5----5----6-----------/
6/------0-0----0----0--------------/

Creo que esta bien...cualquier cosa me corrigen...
Me faltaron varios detalles...y arreglos...
que no encaro a sacarlos...me falta paciencia y voluntad
Saludos

            
            
Suggest correction
Creating personal tab
Creating personal tab
You can edit any tab online and save it as your Personal.

You can edit, replace or remove any tab part or add personal notes – all changes will be seen only by you.

Personal tabs can be accessed anytime from any device, even offline.
Learn more »
Give kudos to tab author, rate the tab!
1 2 3 4 5
comments
print report bad tab
guest
Wanna post a correction for this tab? Suggest correction