Oops, an error
Loading. Please wait.

Cuanta Falta Tab

41 views 1 this week
no commentswrite comment
1 2 3 4 5
3 more votes to show rating
add to favorites
launch autoscroll
font size
0
reset
how to read this tab
guitar tuner
Autoscroll
slow
fast
+/-
esc
set tempo
stop
Help us to improve Ultimate-Guitar.com Take our survey!
×
Band: Reyerta
Song:Cuanta Falta
Tabbed By: FredZero
visit Reyerta at http://reyertametal.web1000.com
Hammer: h
Slide: /
Ghost note: g
Vibrato: v
They are from Panama. a great band.enjoy
Intro: Clean Guitar 1,Guitar 2 is the same but I think that he used a wah effect.

E------------------------------------------------------------------------------
B------------------------------------------------------------------------------
G---------------6----------------------4---------------6-------4-4—4h6-4-------
D--------6----------6g----------4---------4g------6-----6g---------------------
A-----4-----4-------------4--------4-----------4-----4-------4g----------------
E------------------------------------------------------------------------------
   In some 4’s or 6’s is plucked again but making a ghost note.
E------------------------------------------------------------------------------
B------------------------------------------------------------------------------
G---------------6----------------------4------------------6-------4-4—4h6-4----
D--------6--------6g----------4---------4g----------6-------------------------
A-----4-----4-------------4------4-------------4--------4-------4--------------
E------------------------------------------------------------------------------
Verse1: (Guitar 2 the same with the wah effect) 2x
E------------------------------------------------------------------------------
B------------------------------------------------------------------------------
G--------------6--------------------4-----------------6--------4-4—4---333----
D--------6--------6g---------4----------4g------6-------6g--------------------
A-----4-----4-------------4------4-----------4------4---------4g---------------
E------------------------------------------------------------------------------

Pre-Chorus: Guitar 1(Distorted). Guitar 2 continue playing the verse1 with wah.
Play this distorted(guitar 1):
Nadie puede vivir …….Con el alma vacía
E--------------------------------------------------
B--------------------------------------------------
G----6-6---6-------4--4-----4----------------------
D----6-6---6-------4--4-----4----------------------     4X
A----4-4---4-------4--4-----4-----------------------
E---------------------------------------------------

Then play this: Both guitars play this distorted 
Día tras día……
E--------------------
B--------------------
G--------------------
D--6--6--6--6---6----
A--6--6--6--6---6----
E--0--0--0--0---0----


Chorus: Both guitars


E----------------------------
B-----------------------------
G----6--6----2--2--2--2--2----
D----6--6----2--2--2--2--2----
A----4--4----2--2--2--2--2----

Verse 2:

E----------------------------------------------------------------------------
B----------------------------------------------------------------------------
G---------------6----------------------4-4-4---------------6-------4-4—4h6-4-
D--------6-----------6g--------4-------------------6--------6g--------------- 
A-----4-----4--------------4-------4-----------4--------4--------4g----------
E----------------------------------------------------------------------------

E----------------------------------------------------------------------------
B----------------------------------------------------------------------------
G---------------6---------------------4----------------6-------4-4--4---333--
D--------6---------6g---------4--------4g-------6--------6g------------------
A-----4-----4-------------4------4-----------4------4--------4g--------------
E----------------------------------------------------------------------------

Pre-Chorus: Guitar 1(Distorted). Guitar 2 continue playing the verse2 with wah.
Play this distorted(guitar 1):
Nadie puede vivir …….Con el alma vacía
E-------------------------------------
B-------------------------------------
G----6-6---6-------4--4-----4---------
D----6-6---6-------4--4-----4---------                4X
A----4-4---4-------4--4-----4---------
E-------------------------------------

Día tras día……
E-----------------------------
B-----------------------------
G-----------------------------
D----6 --6----6----6---6-----
A----6---6----6----6---6-----
E----0---0----0----0---0-----
Chorus: Both guitars
E----------------------------------------
B----------------------------------------
G----------------------------------------
D---6--6----2--2--2--2--2----------------
A---6- 6----2--2--2--2--2----------------
E---4--4----2--2--2--2--2----------------

Interlude1: Guitar1(distorted).
E------------------------------------------------
B------------------------------------------------
G------5-5---------------------------------------
D------5-5---5--5---7--7--7--7--7----------------
A------3-3---5--5---7--7--7--7--7----------------
E------------3--3---5--5--5--5--5----------------

E------------------------------------
B------------------------------------
G------5-5-/-9-9--9------------------
D------5-5-/-9-9--9--5--5--5---5-----
A------3-3-/-7-7--7--5--5--5---5-----
E--------------------3--3--3---3-----

Solo: Guitar2. Guitar1 continues playing the interlude.

E-----------------------------------------------15-15-15-15--17-15--15-17-15-15-
B-7/12-12-15vv15/9vv-9-9vv9vv-7/12-12-15-15-15-15-------------------------------
G-------------------------------------------------------------------------------
D-------------------------------------------------------------------------------
A-------------------------------------------------------------------------------
E-------------------------------------------------------------------------------

E--17-15-15--17-15-15-17-15-15--12h15-15-12h15-15--12h15-15—12h15-15---15vvv--
B-----------------------------------------------------------------------------
G-----------------------------------------------------------------------------
D-----------------------------------------------------------------------------
A-----------------------------------------------------------------------------
E-----------------------------------------------------------------------------
Interlude2: Guitar2 Distort
Cuanta falta hace tu presencia….
E-------------------------------------14-
B----------------------------------------
G----------------------------------------
D----------------------------------------
A---5-44--5-44--5-44--5-44--5------------
E----------------------------------------

Guitar1 holds the last note of Interlude1 while the guitar2 play the interlude2
Then after the second time interlude2 is played the guitar1 enters playing the
same As guitar2

Interlude3: Me ahogo en mi propio dolor….
E-----------------------------------------14-
B--------------------------------------------
G--------------------------------------------              
D----5-4-4---5-4-4--5-4-4--5--4-4------------
A----5-4-4---5-4-4--5-4-4--5--4-4------------
E----5-4-4---5-4-4--5-4-4--5--4-4------------     

E----------------------------------------------
B----------------------------------------------
G----------------------------------------------               
D----5-4-4---5-4-4--5-4-4--5--4-4-----7--------
A----5-4-4---5-4-4--5-4-4--5--4-4-----7--------
E----5-4-4---5-4-4--5-4-4--5--4-4-----7--------  
Outro: Finish with palm muted after he stop singing.
Suggest correction
Give kudos to tab author, rate the tab!
1 2 3 4 5
comments
print report bad tab
guest
You may want to rate the tab now too:
select rating
Wanna post a correction for this tab? Suggest correction