Oops, an error
Loading. Please wait.

Aguacero tab

by Reyli
22 views 1 this week
no commentswrite comment
1 2 3 4 5
2 more votes to show rating
add to favorites
×
Save as Personal and add changes to this tab that will be seen only by you. Learn more ›
×
You can save this tab as Personal to edit and correct it or add notes. All changes will be seen only by you. Learn more »
launch autoscroll
font size
0
reset
how to read this tab
guitar tuner
edit
Autoscroll
slow
fast
+/-
esc
set tempo
stop
Esta cancion es originalmente a 2 VOCES
aunque si se canta a una sola voz se oye bien
si una de las 2 voces es femenina se oye mucho mejor.

   INTRO

   1.-------------------------------------------- +
   2.-------------------------------------------- +
   3.-------------------------------------------- +
   4.---3--3/5-5-5-5/3--5/6--6--6-6/5------------ +
   5.-------------------------------------------- +

   3.-------------------------------------------- +
   4.---5--5/6--6-6--6/5--6/8--6-5--3/1--1/3----- +
   5.-------------------------------------------- +

   3.-------------------------------------------- +
   4.---3/5-5-5-5/3--5/6-6-6--6/5--5-6-5-3-1----- +
   5.-------------------------------------------- +


   Después se tocan los acordes como un arpegeo.


 Voz1
      D              Am
 Saldre de viaje, me ire muy lejos,
     C              G
 sin equipaje, con tu recuerdo,
    D           Am
 no sera facil dejar los sueños
      G            D
 guardados en un cajon.


     D             Am
 Nos dimos todo, tuvimos tiempo,
    C            G
 y nos perdimos en el intento,
   D                  Am
 hay que tristeza, me estoy muriendo
     G       D
 en este rincon.


 Bm                  G
 Y no busquemos al culpable,
 D                   A
 de nada nos va a servir,
 Bm                  G
 ahora es demasiado tarde,
               D                 A
 solo queda aceptar, el amor es asi.

 D             G
 Un aaaguacero   esta cayendo,
  Bm                         A
 quiero naufragar lejos de ti,
 D            G
 un aaaguacero rompiendo el cielo,
  Bm                     A
 tengo tantas ganas de vivir.  oooooooh!!!


   1.-------------------------------------------- +
   2.-------------------------------------------- +
   3.-------------------------------------------- +
   4.---3--3/5-5-5-5/3--5/6--6--6-6/5------------ +
   5.-------------------------------------------- +

   3.-------------------------------------------- +
   4.---5--5/6--6-6--6/5--6/8--6-5--3/1--1/3----- +
   5.-------------------------------------------- +

   3.-------------------------------------------- +
   4.---3/5-5-5-5/3--5/6-6-6--6/5--5-6-5-3-1----- +
   5.-------------------------------------------- +


 Voz 2
      D              Am
 Le dimos vida a nuestro sueño,
     C              G
 nos abrazamos al universo,
   D           Am
 todo era facil, todo era nuevo,
 G            D
 y todo cambio.

      D             Am
 A nuestra casa llego el invierno,
    C            G
 y la costumbre trajo el silencio,
    D             Am
 como me dueles, como lo entiendo,
   G        D
 que nos paso?


    AQUI SE CANTA A 2VOCES:

  Bm                  G
 Y no busquemos al culpable,
 D                   A
 de nada nos va a servir,
 Bm                  G
ahora es demasiado tarde,
               D                 A
solo queda aceptar, el amor es asi.

D             G
Un aaaguacero   esta cayendo,
  Bm                         A
quiero naufragar lejos de ti,
D            G
un aaaguacero rompiendo el cielo,
 Bm                     A
tengo tantas ganas de vivir.


   1.-------------------------------------------- +
   2.-------------------------------------------- +
   3.-------------------------------------------- +
   4.---3--3/5-5-5-5/3--5/6--6--6-6/5------------ +
   5.-------------------------------------------- +

   3.-------------------------------------------- +
   4.---5--5/6--6-6--6/5--6/8--6-5--3/1--1/3----- +
   5.-------------------------------------------- +

   3.-------------------------------------------- +
   4.---3/5-5-5-5/3--5/6-6-6--6/5--5-6-5-3-1----- +
   5.-------------------------------------------- +

            
            
Suggest correction
Creating personal tab
Creating personal tab
You can edit any tab online and save it as your Personal.

You can edit, replace or remove any tab part or add personal notes – all changes will be seen only by you.

Personal tabs can be accessed anytime from any device, even offline.
Learn more »
Give kudos to tab author, rate the tab!
1 2 3 4 5
comments
print report bad tab
guest
Wanna post a correction for this tab? Suggest correction