Oops, an error
Loading. Please wait.

Despertar tab

version 2
version 2

Whole song

by Rezaka
4 views 1 this week
no commentswrite comment
1 2 3 4 5
3 more votes to show rating
add to favorites
×
Save as Personal and add changes to this tab that will be seen only by you. Learn more ›
×
You can save this tab as Personal to edit and correct it or add notes. All changes will be seen only by you. Learn more »
launch autoscroll
font size
0
reset
how to read this tab
guitar tuner
edit
Autoscroll
slow
fast
+/-
esc
set tempo
stop
mmm ..!aka de nuevo .. sta vez kon una de rezaka - despertar...de l ptm..
xseaka sta sta 100% bien io lo se .. la he tokado kon mi banda i sale de la
ptm .. asi k eskuzhen bien la kancion i denle su tiempo a kada akorde para
k les salga xvr...

2da guitarra                     1ra guitarra

G5           D5                  G|-7---9---11---12---11---7---9--11---12|
Me despierto, luego de soñar,    D|-x---x----x----x----x---x---x---x----x|
       E5        B5              A|-5---7----9---10----9---5---7---9---10|
cuando concluía el final,        [x2]
       C5
i a0ra veo que estoi
 D5                         G5...
mejor k esa vez despierto.

            D5
i de nuevo, miro hacia atrás,
   E5                        B5
pensando en todo lo k hiciste mal,
     C5
recordando, io estoi
   D5                  G5...
tratando de no tropezar.


koro 2da guitarra ..!!           1ra guitarra

C5         D5          E5
No se si es tarde para hablar,   G|-12--11-9--11-12--14--16--17--16--12-11|
     D5           C5             D|--x--x--x--x---x---x---x---x--x----x--x|
si es tarde así será,            A|-10--9--7--9--10--12--14--15--14--10--9|
      D5
pero se,
    E5               D5
k no tengo ganas de hablar,      G|-9--11---12--11---5---7|
       C5                        D|-x---x----x---x---x---x|
sólo espera i verás              A|-7---9---10---9---3---5|
 D5
mi despertar.


punteo 1ra guitarra ..!!akompañado por la segunda (G5-D5-E5-B5-C5-D5....G5)

E|------------------------------------------------------------------------|
B|------------------------------------------------------------------------|
G|-5-4--7-5-4-5-4!(x4)--12-0-0-11-0-0-9-0-0-7-0-0-5-0-5-4-5-4---7-5-4-5-4-|
A|----5-------------------------------------------------------5-----------|


E|---------------------------------------------------|
B|---------------------------------------------------|
G|-5-4---7-5-4-5-4-12-0-0-11-0-0-9-0-0-7-0-0-5-0-5-4-|
A|-----5---------------------------------------------|

E|----------------------------------|
B|----------------------------------|
G|-5-4---7-5-4-5-4--5-4---7-5-4-5-4-|
A|-----5----------------5----------5|

2da guitarra                     1ra guitarra
G5            D5
Mucho tiempo, me kostó aceptar,  G|-7---9---11---12---11---7---9--11---12|
      E5             B5          D|-x---x----x----x----x---x---x---x----x|
k ya no lograría salvar,         A|-5---7----9---10----9---5---7---9---10|
      C5                         (x2)
lo k quedo atrás,
    D5                G5...
quedó para ia olvidar.
            D5
i comprendo, era un iluso más,
       E5                B5
k pensaba que podía confiar,
    C5
algo si es verdad,
   D5               G5
no sabes de lealtad.


koro 2da guitarra ..!!          1ra guitarra
C5           D5            E5
No se si es tarde para hablar,  G|-12--11-9--11-12--14--16--17--16--12-11|
       D5         C5            D|--x--x--x--x---x---x---x---x--x----x--x|
si es tarde así será,           A|-10--9--7--9--10--12--14--15--14--10--9|
      D5
pero se,
     E5                D5
k no tengo ganas de hablar,     G|-9--11---12--11---5---7|
        C5                      D|-x---x---x----x---x---x|
sólo espera i verás             A|-7---9---10---9---3---5|
 D5
mi despertar.

punteo 1ra guitarra ..!!akompañado por la segunda (G5-D5-E5-B5-C5-D5....G5)

B|---------------------------------------|
G|-----------5-7-5-4-5-4-----------------|
D|-5-5-4-5-7----------------7-5-5-5-4-5--|
A|---------------------------------------|
E|---------------------------------------|


1 guitarra oktavas akompañado..... 2da guitarra (G5-D5-E5-BE-C5-D5......)

B|------------------------------|
G|-12-11--9-11--12-11--7--9--11-|
D|-x---x--x--x---x--x--x--x---x-|
A|-10--9--7--9--10--9--5--7---9-|
E|------------------------------|

kintas i oktavas!!! fin!! xD..!
      D5     C5     B5    G5...
G|---11-----9-----11----12----|
D|----x-----x------x-----x----|
A|----9-----7------9----10----|

i ia sta.. eso s too .. ojala k les salga bien ps..! sta tablatura sta bien
ahh!! puzha ia sikon esto no les sales... son bieeeeeeennn pero biennnn ..
kojudos...!
Suggest correction
Creating personal tab
Creating personal tab
You can edit any tab online and save it as your Personal.

You can edit, replace or remove any tab part or add personal notes – all changes will be seen only by you.

Personal tabs can be accessed anytime from any device, even offline.
Learn more »
Give kudos to tab author, rate the tab!
1 2 3 4 5
comments
print report bad tab
guest
Wanna post a correction for this tab? Suggest correction