Oops, an error
Loading. Please wait.

No Importa chords

by Rezaka
2 views 1 this week
no commentswrite comment
1 2 3 4 5
3 more votes to show rating
add to favorites
×
Save as Personal and add changes to this tab that will be seen only by you. Learn more ›
×
You can save this tab as Personal to edit and correct it or add notes. All changes will be seen only by you. Learn more »
launch autoscroll
font size
0
reset
transpose
0
reset
simplify chords
display chords
guitar tuner
edit
Autoscroll
slow
fast
+/-
esc
set tempo
stop
Strumming
There is no strumming pattern for this song yet. and get +5 IQ
Leandro Ravello M.(LeanWean)  LAndo!'

Esta es una canción re-contra personal diría yo/*ya
que cuando por primera vez la escuche me hizo recordar
viejos tiempos cuando perseguía a la (pollo)?Edelei?/*
tiempo pasado y te llega al bobo de inmediato/*si sabes
entender lo que el pata trata de expresar con esta canción?
'·/*lizet no te pongas celosa!'

    D5          D5/4            B5                G5              A5           (Intro)
G/--7--9--11--9--12----11--9--7--7--9---11--14---12--11---12---11----9--7------
D/--x--x---x--x--x-----x---x--x--x--x---x----x----x---x----x----x----x--x-(2 veces c repite esto)
A/--5--7---9--7--10----9---7--5--5--7---9---12---10---9---10----9----7--5 ----

D5           D5/4             B5       G5            A5 (BAJO)solo A 1era estrofa/*---.
No importa si es tarde esta vez, si mañana cambiaras de idea
D5           D5/4             B5             G5       A5
No importa si te vuelvo a ver, si las cosas fueran como antes
G5           A5                 D5                D5/4        B5    G5
Intentaría volver otra vez  pero tú haz cambiado y haz olvidadoooo??    el verdadero amor.

Este es un riff? q hay en medio de la canción háganlo rápido y les va a salir igualito:
   D5---D5/4                       B5         G5              A5
G/-7-/--11--/--9--------------- /-14---12--11--12--12--7--9--7-/*-/7-/- 11-/-9-/          /14-12-11-7-12-11-9-7
D/-x-/--x--/---x-(6 veces)/----/--x----x---x----x---x--x--x--x-/*/-x-/--x--/-x-  (6 veces)/-x-x--x--x--x--x-x-x
A/-5-/--9--/---7----------------/-12---10--9-- 10--10--9--7--5-/*/-5/---9--/-7-/           /12-10-9-5- 10-9-7-5

D5                D5/4             B5           G5        A5
No hay razones que me hagan volver a intentar continuar esa historia
D5                    D5/4            B5             G5       A5
Solo hay canciones que hacen recordar esos momentos q antes pasaron
G5           A5                D5                D5/4        B5   G5                    D5
Intentaría volver otra vez pero tu haz cambiado y haz olvidadooooo?. ......el verdadero amor.
            D5/4                  B5          G5         A5             D5
Que una vez paso que el tiempo se llevo esas palabras que alguien olvido
            D5/4                  B5           G5         A5
Que una vez paso que el tiempo se llevo esas palabras que alguien olvido..(1 vez mas)/*
   D5          D5/4            B5                G5              A5
G/-7-7--9--11--9--12----11--9--7--7--9---11--14---12--11---12---11----9--7------
D/-x-x--x---x--x--x-----x---x--x--x--x---x----x----x---x----x----x----x--x-(2 veces c repite esto)
A/-5-5--7---9--7--10----9---7--5--5--7---9---12---10---9---10----9----7--5 ----

    G5           A5             D5                D5/4              B5 G5
Intentaría volver otra vez pero tu haz cambiado y lo haz olvidadooooo?.

   D5          D5/4            B5                G5              A5
G/-7-7--9--11--9--12----11--9--7--7--9---11--14---12--11---12---11----9--7------
D/-x-x--x---x--x--x-----x---x--x--x--x---x----x----x---x----x----x----x--x-(2 veces c repite esto)
A/-5-5--7---9--7--10----9---7--5--5--7---9---12---10---9---10----9----7--5 ----

!'depues ak ay un juego de 8tavas ya ustedes saquenlas es facilicimo son kon
los mismos puntos de arriba!'y ya esta toda la kancion!'

 ------------------------------------------------------------------------------------------------------------

!'Inspirada solo x.......!'!' liz-liz!'pa q ya no me este molestando kon q le enseñe la cancion!'
Bueno aqui tienen una cancionsita de uno de mis grupos favoritos Rezakita!'
y puxa solo quiero mandar saludos a toda la Promo Vanhelsing!del Año
pasado del kole'Los Educadores!'weno y un saludazo muy especial a mi amiga Lite!'
la chik kaleta!'/*que la quiero muxo y que la tengo en mi korazon komo a ninguna otra persona
y no save kuanto le agradesko lo muxo q ha hecho x mi!'y que le enseño guitarra desde el año
pasado!'y que siempre me apoya en todo es mi hincha numero 1!'y weno px!'habla kuando una
revancha de pinpong!'jeje!'!'gracias a ella salgo adelante!'/*weno ps!'saludos a toda esa
gente q apoya la escena!'y weno px!'solo esperen un tiempito q mi grupo!'ya va estar en
la escena lokal tambien!'weno ps si tienen alguna duda o konsulta sobre las tablaturas de
Rezaka!'solo scribanme!'
         !'!'weno tiox ahi nos vemos!'

            
            
Suggest correction
Creating personal tab
Creating personal tab
You can edit any tab online and save it as your Personal.

You can edit, replace or remove any tab part or add personal notes – all changes will be seen only by you.

Personal tabs can be accessed anytime from any device, even offline.
Learn more »
Give kudos to tab author, rate the tab!
1 2 3 4 5
comments
print report bad tab
guest
Wanna post a correction for this tab? Suggest correction