Oops, an error
Loading. Please wait.

No Voy A Volver tab

by Rezaka
36 views 1 this week
no commentswrite comment
1 2 3 4 5
3 more votes to show rating
add to favorites
×
Save as Personal and add changes to this tab that will be seen only by you. Learn more ›
×
You can save this tab as Personal to edit and correct it or add notes. All changes will be seen only by you. Learn more »
launch autoscroll
font size
0
reset
how to read this tab
guitar tuner
edit
Autoscroll
slow
fast
+/-
esc
set tempo
stop
  F5*
|--------------|
|--------------|
|--------------|
|----10--------|
|--8-----------|
|--------------|


Intro:

|-----------------------------------------------------|
|-----------------------------------------------------|
|-------------------------7-7-7-7-7-7-7-7-------------| x2
|-8-8-8-8-8-8--7-7-7-7-7--x-x-x-x-x-x-x-x-------------|
|-8-8-8-8-8-8--8-8-8-8-8--8-8-8-8-8-8-8-8-------------|
|-6-6-6-6-6-6--6-6-6-6-6--6-6-6-6-6-6-6-6-------------|

 D#5 D5


       A#5                       D#5
|-----------------------------------------------------|
|-----------------------------------------------------|
|-------------------------7-7-7-7-7-7-7-7-------------| x2
|-8-8-8-8-8-8--7-7-7-7-7--x-x-x-x-x-x-x-x-------------|
|-8-8-8-8-8-8--8-8-8-8-8--8-8-8-8-8-8-8-8-------------|
|-6-6-6-6-6-6--6-6-6-6-6--6-6-6-6-6-6-6-6-------------|

 D#5 D5

       A#5      A5     D#5     F5*
|---------------------------------------------------------|
|---------------------------------------------------------|
|------7----8-7----7---8-7-------7---8-7-----7---8-7------|
|---8----8-----------8-------------8-----------8----------|
|----------------------------5-6---------6-8--------------|
|----------------6-5--------------------------------------|


    A#5      A5     D#5     F5*  <---- en esta parte se mutean
|---------------------------------------------------------|
|---------------------------------------------------------|
|------7----8-7----7---8-7-------7---8-7-----7---8-7------|
|---8----8-----------8-------------8-----------8----------|
|----------------------------5-6---------6-8--------------|
|----------------6-5--------------------------------------|


A#5                A5
Perdi la cuenta de las veces
   D#5      F5*
que me senti mal aquí.
A#5                   A5       D#5
Recuerdo haber muerto esa vez, y sin querer
F5*
tú también.
D#5          F5*       A#5        A5          G5
Pero no puedo escapar, me pierdo, me miento y al final
D#5           F5*
sigo atrapado en este lugar.


       A#5                       D#5
|-----------------------------------------------------|
|-----------------------------------------------------|
|-------------------------7-7-7-7-7-7-7-7-------------|
|-8-8-8-8-8-8--7-7-7-7-7--x-x-x-x-x-x-x-x-------------|
|-8-8-8-8-8-8--8-8-8-8-8--8-8-8-8-8-8-8-8-------------|
|-6-6-6-6-6-6--6-6-6-6-6--6-6-6-6-6-6-6-6-------------|


A#5      A5       D#5      F5*


A#5                A5
Perdi la cuenta de las veces
   D#5      F5*
que me senti mal aquí.
A#5                   A5       D#5
Recuerdo haber muerto esa vez, y sin querer
F5*
tú también.
D#5          F5*       A#5        A5          G5
Pero no puedo escapar, me pierdo, me miento y al final
D#5           F5*
sigo atrapado en este lugar.


       A#5                       D#5
|-----------------------------------------------------|
|-----------------------------------------------------|
|-------------------------7-7-7-7-7-7-7-7-------------|
|-8-8-8-8-8-8--7-7-7-7-7--x-x-x-x-x-x-x-x-------------|
|-8-8-8-8-8-8--8-8-8-8-8--8-8-8-8-8-8-8-8-------------|
|-6-6-6-6-6-6--6-6-6-6-6--6-6-6-6-6-6-6-6-------------|

No voy a volver
a tu lado no voy a volver...

|---------------------------------------------------------|
|---------------------------------------------------------|
|------7----8-7----7---8-7-------7---8-7-----7---8-7------|
|---8----8-----------8-------------8-----------8----------|
|----------------------------5-6---------6-8--------------|
|----------------6-5--------------------------------------|


|----------------------------------------------------------|
|----------------------------------------------------------|
|-------7----8-7----7---8-7-------7---8-7-----7---h8-7-----|
|----8----8-----------8-------------8-----------8----------|
|-----------------------------5-6---------6-8--------------|
|-5-6-------------6-5--------------------------------------|

|-----------------|
|-----------------|
|------7----------|
|-----8-----------| eso se rasguea, con eso termina la canción.
|----6------------|
|-----------------|

correciones, dudas, sugerencias: dammit1694@ bye!

            
            
Suggest correction
Creating personal tab
Creating personal tab
You can edit any tab online and save it as your Personal.

You can edit, replace or remove any tab part or add personal notes – all changes will be seen only by you.

Personal tabs can be accessed anytime from any device, even offline.
Learn more »
Give kudos to tab author, rate the tab!
1 2 3 4 5
comments
print report bad tab
guest
Wanna post a correction for this tab? Suggest correction