Oops, an error
Loading. Please wait.

Ya No tab

by Rezaka
10 views 1 this week
no commentswrite comment
1 2 3 4 5
3 more votes to show rating
add to favorites
×
Save as Personal and add changes to this tab that will be seen only by you. Learn more ›
×
You can save this tab as Personal to edit and correct it or add notes. All changes will be seen only by you. Learn more »
launch autoscroll
font size
0
reset
how to read this tab
guitar tuner
edit
Autoscroll
slow
fast
+/-
esc
set tempo
stop
 A5 G#5* F#5 D5 E5 (x2)


|-------------------------------|
|-------------------------------|
|---6------6------6----7-7--9-9-|
|-7---7--6---6--4---4--7-7--9-9-| (x2)
|----------------------5-5--7-7-|
|-------------------------------|
                       ·    ·


|-------------------------------|Esto va
|-------------------2-----------|con lo
|-----6------6------2--7-7--9-9-|de abajo
|-7-7-7--7-7-7--4-4-4--7-7--9-9-|varias
|-7-7-7--7-7-7--4-4-4--5-5--7-7-|veces
|-5-5-5--4-4-4--2-2-2-----------|
  · ·    · ·    · ·    ·    ·

Me siento mal No se en que pensar
Voy mas alla donda nadie llegara
Busco un amor que me haga sentir mejor
Y vuelvo otra vez a cometer el mismo error


D5                <1>  D5                <1>
Y ahora te lo juro     Y ahora te lo juro
A5 G#5* F#5           D5
Que no volvera a pasar
E5
Y ahora te lo juro
A5 G#5* F#5            D5 E5           <1>
Que no volvera a pasar       Nunca mas!


|-------------|Esto va
|-10-7-12-----|con todo
|---------5-7-|lo de
|-------------|abajo
|-------------|varias
|-------------|veces

A5
Tantas cosas que tu me dijiste
G#5*
tanto tiempo esperando pero tu te fuiste
F#5
tantas cosas que me hicieron mucho daño
D5                E5
Que no he podido olvidar
A5
Soñando con el beso que ayer me diste
G#5*
pensar que en un momento todo lo confundiste
F#5
a pesar de las cosas que me dijiste
D5                E5
Que aun no puedo olvidar
A5
Ya nada tiene importancia
G#5*
perdí ya toda confianza
F#5
ya no me queda mas nada
D5             E5
que llorar por tu amor
A5
Recuerdo cuando tu me dejaste
G#5*
me humillaste y me abandonaste
F#5
aun recuerdo muchas cosas
D5            E5
que no puedo olvidar.


D5                <1>  D5                <1>
Y ahora te lo juro     Y ahora te lo juro
A5 G#5* F#5           D5
Que no volvera a pasar
E5
Y ahora te lo juro
A5 G#5* F#5            D5 E5           <1>
Que no volvera a pasar       Nunca mas!
A5      E5         D5   E5-D5-C#5
No estoy esperando nada
A5      E5         D5   E5-D5-C#5
Tan solo una explicacion
A5      E5         D5   E5-D5-C#5
La busco en tu mirada
A5      E5         D5   E5-D5-C#5
Pero ya no expresa nada
A5      E5         D5   E5-D5-C#5
No estoy esperando nada
A5      E5       D5
Tan solo un perdon


D5/C#5 C#5/B5 B5/A5


aca solo tienes que darle bien los tiempos
|---------------------------------------------------------------------|
|---------------------------------------------------------------------|
|-14--16--18-19-18-16-14-13-14-13-11-13-14-16-18-19-18-16-18-19-21-19-|
|-x---x---x--x--x--x--x--x--x--x--x--x--x--x--x--x--x--x--x--x--x--x--|
|-12--14--16-17-16-14-12-11-12-11-9--11-12-14-16-17-16-14-16-17-19-17-|
|---------------------------------------------------------------------|


|-------------|Esto va
|-10-7-12-----|con todo
|---------5-7-|lo de
|-------------|abajo
|-------------|varias
|-------------|veces

A5
Tantas cosas que tu me dijiste
G#5*
tanto tiempo esperando pero tu te fuiste
F#5
tantas cosas que me hicieron mucho daño
D5                E5
Que no he podido olvidar


|-------------|
|-10-7-12-----|
|---------5-7-|
|-------------|
|-------------|
|-------------|


A5      E5         D5   E5-D5-C#5
No estoy esperando nada
A5      E5         D5   E5-D5-C#5
Tan solo una explicacion
A5      E5         D5   E5-D5-C#5
La busco en tu mirada
A5      E5         D5   E5-D5-C#5
Pero ya no expresa nada
A5      E5         D5   E5-D5-C#5
No estoy esperando nada
A5      E5       D5
Tan solo un perdon


D5/C#5 C#5/B5 B5/A5


|--------------------------------------------------------------|
|--------------------------------------------------------------|
|---6-7-7h9-7-6-7-6-7-6-7-9-7-6-7-6---6-7-7h9-7--6-7-9-7-6-7---|
|-7---------------------------------9------------------------7-|
|--------------------------------------------------------------|
|--------------------------------------------------------------|


_______________________________

<1>
|-----------|
|-----------|
|-----------|
|-6-7-9-7-6-|
|-----------|
|-----------|


 G#5*
|---|
|---|
|---|
|-6-|
|-7-|
|-4-|

Palm Mute = ·

Delizar de un traste a otro = /

Hammer on = h
________________________________

            
            
Suggest correction
Creating personal tab
Creating personal tab
You can edit any tab online and save it as your Personal.

You can edit, replace or remove any tab part or add personal notes – all changes will be seen only by you.

Personal tabs can be accessed anytime from any device, even offline.
Learn more »
Give kudos to tab author, rate the tab!
1 2 3 4 5
comments
print report bad tab
guest
Wanna post a correction for this tab? Suggest correction