Oops, an error
Loading. Please wait.

Elgards Green Valley Tab

version 1
version 1

Whole song

Interactive

400 views 1 this week
no commentswrite comment
1 2 3 4 5
please rate
add to favorites
launch autoscroll
font size
0
reset
how to read this tab
guitar tuner
Autoscroll
slow
fast
+/-
esc
set tempo
stop
Help us to improve Ultimate-Guitar.com Take our survey!
×
Author
Song:   Elgard's Green Valleys
Artist: Rhapsody
Album:  Symphony Of Enchanted Lands II - The Dark Secret -

Hi this is my first tab that I have written so please don't be too
harsh on me. Anyway, I didn't see any text tabs up for this song which I
thought sounded medievil-ish (if thats even a word) and catchy. Please
note this is the tab for the melody part not the chords in the background.
-Enjoy-

Key:
        Brackets with 3 numbers inside Ex: [10 12 13] are triplets.

Tuning: Standard (E A D G B E)

Riff 1:  4x

E ------------------10----------------------------15-14-12----|
B -10-[10 12 13]-10----13-12-10--10-[10 12 13]-10-------------|
G ------------------------------------------------------------|
D ------------------------------------------------------------|
A ------------------------------------------------------------|
E ------------------------------------------------------------|

E ------------------10----------------------------------------|
B -10-[10 12 13]-10----13-12-10--10-[10 12 13]-10-7-9-10------|
G ------------------------------------------------------------|
D ------------------------------------------------------------|
A ------------------------------------------------------------|
E ------------------------------------------------------------|

Riff 2:  2x

E ------------------------------------------------------------|
B ------------------12----------------------------17-16-14----|
G -11-[11 13 14]-11----14-13-11--11-[11 13 14]-11-------------|
D ------------------------------------------------------------|
A ------------------------------------------------------------|
E ------------------------------------------------------------|

E ------------------------------------------------------------|
B ------------------12----------------------------------------|
G -11-[11 13 14]-11----14-13-11--11-[11 13 14]-11-8-10-11-----|
D ------------------------------------------------------------|
A ------------------------------------------------------------|
E ------------------------------------------------------------|

Riff 1: 2x
Riff 2: 4x
Suggest correction
Give kudos to tab author, rate the tab!
1 2 3 4 5
comments
print report bad tab
guest
You may want to rate the tab now too:
select rating
Please do not post tabs as comments. Select "correction" instead!