Oops, an error
Loading. Please wait.

Emerald Sword Tab

version 1
version 1
16,299 views 39 this week
no commentswrite comment
1 2 3 4 5
excellent!
x 3
add to favorites
launch autoscroll
font size
0
reset
how to read this tab
guitar tuner
Autoscroll
slow
fast
+/-
esc
set tempo
stop
Help us to improve Ultimate-Guitar.com Take our survey!
×
Author
Difficulty
advanced
NOTE: Tune 1/2 down step
      If you find mistakes or doubt, please let me know!

-|-------------------------------------------------------------------------|--|
-|-------------------------------------------------------------------------|--|
-|-----12-13-10-13-12----12-10------------------12-13-10-13-12----12-------|--|
-|1010----------------13-------13-12-10----1010----------------13-----12-10|--|
-|--------------------------------------13--------------------------13-----|--|
-|-------------------------------------------------------------------------|--|
 | both with the duet
 |
-|---------------------------------------------------|-|
-|---------------------------------------------------|-|
-|---------------------------------------------------|-|
-|-------444444222222-1-----------444444222222---1---|-|
-|-444444---------------4-2-444444-------------2---4-|-|
-|---------------------------------------------------|-|
                                    2x      Across...
                                          Riff 1
-|-------------------------------------|-|------------------------------------|
-|-------------------------------------|-|------------------------------------|
-|-------------------------------------|-|------------------------------------|
-|-----------------8-------------------|-|-6----------------------------------|
-|-6-666-6-4-444-4-6-6-666-6-4-444-4-6-|-|-4444444444446----------------------|
-|-4-444-4-2-222-2---4-444-4-2-222-2-4-|-|-------------444444444444-----------|


-|--------------------------------------------------------------------------|--|
-|--------------------------------------------------------------------------|--|
-|--------------------------------------------------------------------------|--|
-|-9------------------9-7-----------------6--------------------------6-4----|--|
-|-7777777777779----------10-9-4----------4444444444445------------6-----7--|--|
-|-------------7777-7----------22222222222------------333333333333-4--------|--|
 On  he way...
                  2X                               Back to the Riff 1
-|------------------|-|-------------------------|-|----------------------------|
-|------------------|-|-------------------------|-|----------------------------|
-|-2--4--6--7--4--6-|-|-6---8---9---6---8---9---|-|----------------------------|
-|-2--4--6--7--4--6-|-|-6---8---9---6---8---9-4-|-|----------------------------|
-|-0--2--4--5--2--4-|-|-4---6---7-2-4---6---7-2-|-|----------------------------|
-|------------------|-|-------------------------|-|----------------------------|
  For the...
  (Chorus)
-|-----------------------------------------|--|
-|-----------------------------------------|--|
-|-----------------------------------------|--|
-|-2--------6--7--9--2---2--9--11-6--7--9--|--|
-|-0--2--4--4--5--7--0---0--7--9--4--5--7--|--|
-|----0--2---------------------------------|--|


                                2x
-|-----------------------------|----------------------------|-|
-|-----------------------------|----------------------------|-|
-|-----------6--------------6--|----------------------------|-|
-|-4----7----6----4----7----6--|----------------------------|-|
-|-4----7----4----4----7----4--|-------------------44444444-|-|
-|-2----5---------2----5-------|-22222222-55555555----------|-|

W/the duet    2X
-|---------|-|-16-------16-16----17-16-17-19-17--16-15-16-17-14-------|
-|---------|-|----17-19-------17--------------------------------18-17-|
-|---------|-|--------------------------------------------------------|
-|-6---6---|-|--------------------------------------------------------|
-|-4-4-4-6-|-|--------------------------------------------------------|
-|---2---4-|-|--------------------------------------------------------|


-|-16-------16-16----17-16-17-19-21-19-17-16-17-16----16------------------|
-|----17-19-------17-------------------------------19----19---------------|
-|----------------------------------------------------------17h18h17h18h17|
-|------------------------------------------------------------------------|
-|------------------------------------------------------------------------|
-|------------------------------------------------------------------------|

                                 Back to Riff 1 and Chorus.
-|----------------------------|-|---------------------------|
-|----------------------------|-|---------------------------|
-|----6-----------6-----------|-|---------------------------|
-|-6--4--6-----6--4--5--6---5-|-|---------------------------|
-|-4-----4--6--4-----3--4---3-|-|---------------------------|
-|----------4-----------------|-|---------------------------|
Suggest correction
Give kudos to tab author, rate the tab!
1 2 3 4 5
comments
print report bad tab
guest
You may want to rate the tab now too:
select rating
Please do not post tabs as comments. Select "correction" instead!