Oops, an error
Loading. Please wait.

Eternal Glory Tab

version 1
version 1

Whole song

Interactive

1,311 views 3 this week
no commentswrite comment
1 2 3 4 5
please rate
add to favorites
launch autoscroll
font size
0
reset
how to read this tab
guitar tuner
Autoscroll
slow
fast
+/-
esc
set tempo
stop
Help us to improve Ultimate-Guitar.com Take our survey!
×
***************************************************************
* RHAPSODY - ETERNAL GLORY (From: SYMPHONY OF ENCHANTED LAND) *
***************************************************************
 Music ny: Alex Staropoli/Luca Turilli

Transcribed By: Niclas Buss
Date tabbed: ?.?.1998 and updated 18.10.2000
email: nbuss@ironmaiden.com

-----------------------

 Normal tuning!

 Orchestra Intro, Then

E----------------------------------------------------------------------------------|
B----------------------------------------------------------------------------------|
G----------------------------------------------------------------------------------|
D----------------------------------------------------------------------------------|
A--8--3--8----8--3--7-----8--3--8----8--3--7----8--4--4--6--8---8--4--4---6--------|
E--6--1--6----6--1--5-----6--1--6----6--1--5----6--2--2--4--6---6--2--2---4--------|

  Riff 1
E----------------------------------------------------------------------------------|
B----------------------------------------------------------------------------------|
G----------------------------------------------------------------------------------|
D---------3-------------3-1---------------3--------------------------3---6-6-6-5-3-|
A-------4---4---------3-----4-3---------4---4-----6----------------4---4-----------|
E-6-6-6---------1-1-1-------------6-6-6---------4---8-6-4----6-6-6-----------------|

								     Verse 1
E-------------------------------------------------------------------(Verseriff)----|
B------------------------------------------------------------------|---------------|
G------------------------------------------------------------------|---------------|
D----------------3-----------------------4-3--------------5-3~~----|-8--4-----8--5-|
A-6-4-3--------4---4-----6-----------3-6-----6-4-3----4-7----------|-6--2--6--6--3-|
E--------6-6-6---------4---8-6-4---4----------------6----------------------4-------|

E----------------------------------------------------------------------------------|
B----------------------------------------------------------------------------------|
G----------------------------------------------------------------------------------|
D-7--8--4-----8--5-7-------------------------8---------------------9---------------|
A-5--6--2--6--6--3-5---2-2-2-2-2-2-2-2-2-2-2-6-6-6-6-6-6-6-6-6-6-6-7-7-7-7-7-7-7-7-|
E----------4-----------------------------------------------------------------------|
		      pm...................|  pm..................| pm............|

E----------------------------------------------------------------------------------|
B------------------------------------------------------------------------|---------|
G------------------------------------------------------------------------|-Riff-1--|
D------------------------------------------------------------------------|---------|
A-7-7-7-6-----------------------7---------------------8---------------8--|---------|
E-------4-4-4-4-4-4-4-4-4-4-4-4-5-5-5-5-5-5-5-5-5-5-5-6-6-6-6-6-6-6-6-6------------|
 pm....| pm....................| pm..................| pm............|

	    Chorus
E---------------------------Two-Guitars......................|---------------------|
B-Verse-2-|------------------------------------------------------------------------|
G--with---|-----------------------------------6-6-6-6--6-4-------------------------|
D-Verse---|-4--------8--4-------------8-8-8-8-8-8-8-8--8-6-8-6--4--8-----8--4-----3|
A--riff---|-2--4--6--6--2--4--4-4-4-4-9-9-9-9--------------9-8--2--6--6--6--2--4--1|
E--------------2--4--------2--6-6-6-6---------------------------------4--------2---|
				     pm......................|         

E-------------------------------------------------------------------------13b(14)--|
B-|------------------------------------------|--------------|--14b(16)~~-----------|
G-|------------------------------------------|--Orchestra---|----------------------|
D-|-8--11---6--10--8------8--11---6--10--8---|--and-vocals--|--8------4------------|
A-|-6---9---4---8--6---8--6---9---4---8--6---|--------------|--6------2------------|
E----------------------6-----------------------------------------------------------|

E--18\----------------------------------------------14--11---19-23~~---------------|
B-----------11b(12)-r11-11--------9b(11)r9-7--/11-------------------|--------------|
G-------------------------------------------------------------------|--------------|
D--8---------------------8-----4---------------8--------------------|----8-----8---|
A--6----6----------------6-----2---------------6--------6-----------|----6-6-6-6---|
E-------4-----------------------------------------------4--------------------------|
									  pm..|

E----------------------------------------------------------------------------------|
B----------------------------------------------------------------------------------|
G----------------------------------------------------------------------------------|
D-----------6-----6-------------8-----8-------------6-----6--------------8----7----|
A-4-----4---4-4-4-4---6-----6---6-6-6-6---4-----4---4-4-4-4---6-----6----6----5----|
E-2-2-2-2-------------4-4-4-4-------------2-2-2-2-------------4-4-4-4--------------|
   pm..|     pm..|     pm..|     pm..|     pm..|     pm..|     pm..|

  Guitar Solo (two guitars)
E----------------------------------------------------------------------------------|
B---11--11-11-12-14--12-11-9---9--9-----------9--11--12--12-12-14-16--14-12-11--11-|
G*--11--11-11-13-15--13-11-10--10-10-10----10-10-11--13--13-13-15-16--15-13-11--11-|
D*-----------------------------------11-11-11--------------------------------------|
A---------------------------------------11-----------------------------------------|
E----------------------------------------------------------------------------------|

E----------------------------------------------------------------------------------|
B-11--------/-11--11-11-12-14--12-11-9---9--9-------------------------/9--9--9--11-|
G-11-11-----/-11--11-11-13-15--13-11-10--10-10--10h11p10\8-h10p8--6~-/10--10-10-11-|
D----13-13~-------------------------------------11h13p11\10h11p10\6~---------------|
A-------13~------------------------------------------------------------------------|
E----------------------------------------------------------------------------------|

		   x2
E----------------------------------------------10h13p10----------------------10h13h|
B-12--11-9---11~-------|--------------------11----------11----------------11-------|
G-13--11-10--11~-11~--*|-----------------10----------------10----------10----------|
D----------------13~--*|--12~-13~-----12----------------------12----12-------------|
A----------------------|-----------13----------------------------13----------------|
E----------------------------------------------------------------------------------|

  T
E18p13p10----------10h13-/-18h22~~~------------------------------------------------|
B---------11----11---------------------|-------------------------------------------|
G------------10------------------------|-------------------------------------------|
D--------------------------------------|------------------------8------------------|
A--------------------------------------|--2-2-2-2-2-2-2-2-2-2-2-6-6-6-6-6-6-6-6-6-6|
E----------------------------------------------------------------------------------|
					pm.....................| pm................

E----------------------------------------------------------------------------------|
B----------------------------------------------------------------------------------|
G----------------------------------------------------------------------------------|
D---9------------------------------------------------------------------------------|
A-6-7-7-7-7-7-7-7-7-7-7-7-6-----------------------7---------------------8----------|
E-------------------------4-4-4-4-4-4-4-4-4-4-4-4-5-5-5-5-5-5-5-5-5-5-5-6-6-6-6-6-6|
 ..| pm..................| pm....................| pm..................| pm........
		
E-------------------------------------------------|
B---------|----------|----------|-----------------|
G---------|--Chorus--|----------|-Synth-and-Flute-|
D---------|---(x2)---|-3-3-3-3--|----til-the-end--|
A-----8---|----------|-1-1-1-1--|-----------------|
E-6-6-6-------------------------------------------|
 ......|

TABLATURE EXPLANATION
----------------------
h= hammer on

p= pull off

pm..|= palm mute

b()= bend

T = Tap

~~= vibrato

/= slide up

\= slide down

|     |
|     |
|*   *| = repeat from * to *
|*   *| 
|     |
Suggest correction
What's this?
You can suggest a correction to this tab. Community and Mods will review your correction and vote to approve or reject it.
comments
We did not receive enough feedback on this tab! Please rate:
print report bad tab
1 2 3 4 5
guest
You may want to rate the tab now too:
select rating
Please do not post tabs as comments. Select "correction" instead!