Oops, an error
Loading. Please wait.

Tears At Nightfall Tab

339 views 1 this week
no commentswrite comment
1 2 3 4 5
please rate
add to favorites
launch autoscroll
font size
0
reset
how to read this tab
guitar tuner
Tab Pro tools
  • play this tab
  • loop segment
  • change instrument
  • show fretboard
  • metronome
×
Best way to learn
"Tears At Nightfall"
Autoscroll
slow
fast
+/-
esc
set tempo
stop
****************************************************************
* RHAPSODY - TEARS AT NIGHTFALL (From the demo: ETERNAL GLORY) *
****************************************************************
 Music By: Luca Turilli/Alex Staropoli

Transcribed By: Niclas Buss
Day tabbed: 3.11.2001
Homepage: http://www.metalprovider.com/thedarktower/enter.htm
email: thetabber@yahoo.se

Please mail me if you can find mistakes!

---------------------------------------------------
"Note: Luca plays on a 12-steel-stringed acoustic
 guitar on this one".
---------------------------------------------------

 Normal Tuning

 <0:00>

  Gtr.1
E---10-/-12---------15------------20-\-19-18-19~--17------12~--14-15------15-14-12--|
B-------------10h12----12~--12-12--------------------19~-------------12~------------|
G-----------------------------------------------------------------------------------|
D-----------------------------------------------------------------------------------|
A-----------------------------------------------------------------------------------|
E-----------------------------------------------------------------------------------|
  Gtr.2                                                                             |
E---------------------------------------------------------12~-----.-------------12~-|
B----------------------------------------------------------------13--12~------------|
G--7--/-9----------12--------9-11-12--12-11-\8~------------9~-----------------------|
D-------------7h9------9~---------------------------------------------9~------------|
A-----------------------------------------------------------------------------------|
E-----------------------------------------------------------------------------------|
  Gtr.3                                                                             |
E---------------------7-------------------------2------------7----------------------|
B-------8-----------8---8----------8--------------4---------8-8----8-7-----------2(-|
G---------9-------9-------9-------------------------4------9---9--9-9-9----------2)-|
D----9----------9-----------9---9-------------------------9------9------9--------2(-|
A--7----------7---------------7-------------2------------7------7---------7------0)-|
E-----------------------------------------------------------------------------------|


E-12----12---------------------12~-------------------20----------19----18----19~--17|
B----15---------12------12~---------15p12h15-10/12~---------------------------------|
G-------------------14--------------------------------------------------------------|
D-----------------------------------------------------------------------------------|
A-----------------------------------------------------------------------------------|
E-----------------------------------------------------------------------------------|
                                                                                    |
E-12-14-15~-14h15p14p12h14~---------------------------------12-/-19----------19~--17|
B----------------------------------------------------12-------------17-17-17--------|
G------------------------------9~-----------------------9-9-------------------------|
D-----------------------------------12h-9h12--7/9~----------------------------------|
A-----------------------------------------------------------------------------------|
E-----------------------------------------------------------------------------------|
                                                                                    |
E-------------------------2-----------------7---------------7-----------------------|
B-------2(---------------4-4-------8-------8-8-7----------8---8---------------------|
G-------2)--------------4---4----9---9----9---9-9-------9-------9------------------4|
D-------2(-------------4-----4--9-----9--9------------9-----------9---------------4-|
A-------0)------------2--------7--------7-----------7----------------------------2--|
E-----------------------------------------------------------------------------------|

                                                             <0:33>                                                                           
E------12~--14-15-------15-14---12----12----12-------------|--------15-14h15p14-----|
B-19~-------------12~--------------------15-----12---12~---|---12~--------------13--|
G-----------------------12-11----9-----------------14------|------------------------|
D----------------------------------------------------------|------------------------|
A----------------------------------------------------------|------------------------|
E----------------------------------------------------------|------------------------|
                                                           |
E-------------------------------12~---15-14h15p14p12h14~---|------------------------|
B-19~------------------------------------------------------|------------------------|
G------9~---11-12------------------------------------------|----4~---------------5--|
D-----------------9~---------------------------------------|------------------------|
A----------------------------------------------------------|------------------------|
E----------------------------------------------------------|------------------------|
                                                                                    |
E-2-------------7---------------------------------2--------|--------7---------------|
B4-4------8----8-8-7-------------2)---------2(-----4-4-----|------9---9-------------|
G---4----9----9---9-9------------2(---------2)---4--4------|-----9------9-----------|
D----4--9----9-------------------2)---------2(--4----------|---9----------9-----10--|
A------7----7--------------------0(---------0)-2-------2---|-7----------------------|
E----------------------------------------------------------|------------------------|

E--------15-19-17h19p17-15------------15-14h15p14-------------15-19-17h19p17-15-----|
B--17-19-------------------------12~--------------13~---17-19-----------------------|
G--------------------------16~---------------------------------------------------16~|
D-----------------------------------------------------------------------------------|
A-----------------------------------------------------------------------------------|
E-----------------------------------------------------------------------------------|
                                                                                    |
E--------------------------------12---------14h15-------------12-15-14h15p14-12-----|
B-------------------------------------------------13~---13-15--------------------12~|
G--------------------------4~-------------------------------------------------------|
D-----------------------------------------------------------------------------------|
A-----------------------------------------------------------------------------------|
E-----------------------------------------------------------------------------------|
                                                                                    |
E------8-----------------------7-----------7---------------------8------------------|
B---10---10-------------------9-9--------9---9---------------10------10-------------|
G-9---------9----------------9---9-----9-------9----------9---------------9---------|
D-------------10------------9-----9--9-----------9----10---------------------10-----|
A--------------------------7-------7----------------------------------------------7-|
E-----------------------------------------------------------------------------------|

E----15~--17-17\15-15-\14-14\12-12\11---11~---------12-12\11-11---------------------|
B-17------------------------------------------------------------13-13\12-12\11-11~--|
G-----------------------------------------------------------------------------------|
D-----------------------------------------------------------------------------------|
A-----------------------------------------------------------------------------------|
E-----------------------------------------------------------------------------------|
                                                                                    |
E---------14-14\12-12\11-11---------------------------------------------------------|
B---------------------------13-13\12h13-10~--12-10--13-13\12-12\10-10---------------|
G---------------------------------------------------------------------12-12~~------\|
D-----------------------------------------------------------------------------------|
A-----------------------------------------------------------------------------------|
E-----------------------------------------------------------------------------------|
                                                                                    |
E------7---------------------------0--------------------------------------------3---|
B-----8-8---5)-------------5)-----1-1-------------------------------1---------2---2-|
G----9------5(-------------5(----2---2----------------------2-----2---------3-------|
D9--9-------5)-------------5)---2-----2-------------------2-----2---------2---------|
A--7--------3(-------------2(--0------------------------0---------------------------|
E-------------------------------------------------------------3---------2-----------|


E---------------------------.-----12-14--15~--14h15p14~~---\----||
B-12--12-/-14--/17~--16~---16-17---.----------------------------||
G---------------------------------------------------------------|| end
D---------------------------------------------------------------||
A---------------------------------------------------------------||
E---------------------------------------------------------------||
                                                                ||
E---------------------------------------------------------------||
B---------------------------------------------------------------||
G---------------------------------------------------------------|| end
D------\--------------------------------------------------------||
A---------------------------------------------------------------||
E---------------------------------------------------------------||
                                                                ||
E----------3---------------2--3---------------------------------||
B---------2--2---------4--4----5------5--------4(---------------||
G-3------3-----3------4--4------6---6---6------4)---------------|| end
D---2---2-------2----4--4--------5-------------4(---------------||
A-------------------2-------------4------------2)---------------||
E-----2---------------------------------------------------------||

-----------------------------------------------------------------------------------------

=======================
=TABLATURE EXPLANATION=
=======================

A.H. = Artificial Harmonic

pm..| = Palm mute

h = hammer on

p = pull off

/ = slide up

\ = slide down

~ = Vibrato

b() = Bend

x\ = Pick Slide

--------
--------
---12--- = Tremolo pick
----/---
----/---
----/---

---.---
--12--- = Staccato
-------
-------
-------

|     |
|     |
|*   *| = repeat from * to *
|*   *| 
|
comments
We did not receive enough feedback on this tab! Please rate:
print report bad tab
1 2 3 4 5
I want to post or [tab]
guest
You may want to rate the tab now too:
select rating
Please do not post tabs as comments. Select "correction" instead!