Oops, an error
Loading. Please wait.

Where Dragons Fly Tab

1,838 views 1 this week
1 commentread comment
1 2 3 4 5
1 last vote to show rating
add to favorites
launch autoscroll
font size
0
reset
how to read this tab
guitar tuner
Autoscroll
slow
fast
+/-
esc
set tempo
stop
Help us to improve Ultimate-Guitar.com Take our survey!
×
*****************************************************************
* RHAPSODY - WHERE DRAGONS FLY (From the single: EMERALD SWORD) *
*****************************************************************
 Music By: Alex Staropoli/Luca Turilli

Transcribed By: Niclas Buss
Day tabbed: 12.8.2000
email: nbuss@ironmaiden.com

Please mail me if you find mistakes!

-----------------------------

Normal Tuning

  Acoustic Guitar
E----5)----7)--------------------------3-----7------------------------------------|
B----5(----8(---------------0-1------1-1-----5--------8--7-5-7--------2-3---------|
G----5)----7)-------------2-----2----------5------------------------4-----4------2|
D----7(----9(----7-9----2-----------------------------------------4------------2--|
A---------------------0-----------0-----------------------------2------------0----|
E-----------------------------------------------8-7-------------------------------|

E------------------------5)-------------------------------0---5(-------7(---------|
B-0h1------5-7--5--------5(---------------------------0h2-----5)-------8)---------|
G-----2-------------4-5--5)----5(-4-5----4----------2---------5(--4-5--7(---------|
D------------------------7(----7)-----7----6------2-----------7)-------9)--7-9----|
A-------0----------------------0(------------7--0-------------------------------0-|
E---------------------------------------------------------------------------------|

E-------0--------3---7------------------------------------------------------------|
B-----0-1------1-1---5------8--7-5-7--------2-3---------------5-7--------0-1------|
G---2-----2-------------------------------4-----4---5-4-5--4-----------2-----2---5|
D-2-------------------------------------4----------------------------2------------|
A-----------0-------------------------2----------------------------0-----------0--|
E-----------------------8-7-------------------------------------------------------|

				    Verse 1
E-----------------------------0--||---5------------------------------------2-3----|
B-------------------------0h2----||---5-------0--------------8-6h8p6-5---5------3-|
G--5)-4-5----4----------2--------||---5-4-5---4------5-4-5---------------5------4-|
D--7(-----7----6------2----------||---7-------2-5-2--------7-------------5------4-|
A--0)------------7--0------------||--------------------------------------3------2-|
E--------------------------------||-----------------------------------------------|

E--------------5------------------------------------------2-3-------------------5-|
B--------------5------------0-----------------8--6--5---5------3-------------3--5-|
G-2-4---4------5---5-4-5----4--4------5--4--------------5------4--2-4--4-4------5-|
D---------7-5--7---------7--2----2---------7------------5------4-----------7----7-|
A-------------------------------------------------------3------2------------------|
E---------------------------------------------------------------------------------|

  Bridge
E-----5-------------------------------3--------------------3----------3--5--------|
B--5--5---5---1---6-------------5-------5-----------5---------------3----5----5---|
G--5--5---5---2-----5---------5---5-------5-------5------4------4h5------5----5---|
D-----7---5---3-------7-----5-------5-------5---5------5------5----------7----5---|
A---------3---3-----------3-------------------3-------------------------------3---|
E-------------1-------------------------------------------------------------------|

									    Chorus
E---------------------------3--------------------0-------------------0(-----------|
B--1---6--------------5-------5----------------0---0------3-1h3p1-0--0)---|-Dist..|
G--2------5---------5---5-------5-------5----1-------1---------------1(---|-------|
D--3--------7-----5-------5-------5---5----2-----------2-------------2)---|------2|
A--3------------3-------------------3-------------------------------------|--3---0|
E--1-------------------------------------------------------------------------1----|

E-------------------1----------0--------3------3(---------------------------1-----|
B.......|-----------------------------3---3----3)-----------------------------1---|
G-----------------2----------0------4-------4--4(---Dist.on........|------------2-|
D------5--------3----------2------5------------5)--------2-------5--------3-------|
A--3---3------3----------2---------------------------3---0---3---3------3---------|
E--1--------1----------0-----------------------------1-------1--------1-----------|

					       Verse 2
E--------0------------3----------------0--------5---------------------------2-3---|
B----------0--------3---3----------0h1---1---|--5-------------------------5------3|
G------------2----4-------4------2-----------|--5----4--4-0---5-4---5-4---5------4|
D------2--------5--------------2-------------|--7----2------------7-------5------4|
A----2-----------------------0---------------|----------------------------3------2|
E--0------------------------------------------------------------------------------|

E-----------------------5---------2-3-------------------0--2-3--3(--------3)------|
B-----------2-3---------5-----------------------8(-7-5----------3)--------3(------|
G--2-4----4--------4-5--5--5-4--4----------5----9)--------------4(-2-4-4--4)--2-4-|
D-------4)-------7------7-------2------7-7---7--9(--------------5)--------5(------|
A-------2(--------------------------------------7)------3--2-0--------------------|
E---------------------------------------------------------------------------------|

E----------------------------------------------------------------1)--3-5----------|
B-------0h1----1)---|----------|----------|-----------------0-1--1(--------5-3-5~-|
G-----2-----2--2(---|--Bridge--|--Chorus--|--2)--0-2------2------2)---------------|
D---2----------2)---|----------|----------|--3(---------2--------3(---------------|
A-0------------0(---|----------|----------|--3)-------0----------3)---------------|
E--------------------------------------------1(-----------------------------------|

E----------------------3)-------------------1)-----------0(-----------1)----------|
B-------------8)--7----3(--------------3~---1(-----------1)--3-1------1(----------|
G-5--2)--0-2--9(----9--4)--2-4--4(-2-4------2)------2-4--2(------4-2--2)------2-4-|
D----3(-------9)-------5(-------5)----------3(--3-5------2)-----------3(--3-5-----|
A----3)-------7(----------------------------3)-----------0(-----------3)----------|
E----1(---------------------------------------------------------------------------|

							   Interlude
E-0)--3--------1)--3-5--3~------3(--------------------0~-----5--5-5-\-3-/-5---5---|
B-1(----6-5-3--1(----------6-5--3)------3--------0-1-----|---5--5-5-\-3-/-5---5---|
G-2)-----------2)---------------4(-2-4~--------2---------|*--5--5-5-\-4-/-5---5-5-|
D-2(-----------3(---------------5)-----------2-----------|*--7--7-7-\-5-/-7---7-7-|
A-0)-----------3)--------------------------0-------------|---7--7-7-\-5-/-7-----7-|
E------------------------------------------------------------5--5-5-\-3-/-5-----5-|

							 x2
E--5--5-5-\-3-/-3~---5--5-5-\-3-------3-----1--1-1--3--5)-------------------------|
B--5--5-5-\-3-/-5~---6--6-6-\-5-------3-----1--1-1--3--5(---|----------|----------|
G--5--5-5-\-3-/-5~---7--7-7-\-5--\-4--4-4---2--2-2--4--5)--*|--Bridge--|--Chorus--|
D--7--7-7-\-4-/-5~---7--7-7-\-5--\-5--5-5---3--3-3--5--7(--*|----------|----------|
A--7--7-7-\-5-/-3~---5--5-5-\-3--\-5----5---3--3-3--5--7)---|----------|----------|
E--5--5-5-\-3--------------------\-3----3---1--1-1--3--5(-------------------------|
									 _________
									|1.
E---5(-------7(-------------------------3---7-------3--2-0--------------|---------|
B---5)-------8)-------------0-1-------1-1---5---------------------2-3---|---------|
G*--5(--4-5--7(-----------2-----2-------------------------------4-----4-|-5~-4-5--|
D*--7)-------9)--7-9----2-------------------------------------4---------|---------|
A---------------------0-----------0~-----------\3-2---------2-----------|---------|
E-----------------------------------------------------------------------|---------|
 ______________________________________________________ __________________________
						       |2.
E------------------------------------------------------|--------------------------|
B----/5-7-------0-1---------------------5--------0h2~--|-------0-1--0~------------|
G-4~----------2-----2----5)-4-5-------4--------2------*|-----2----------2-0------2|
D-----------2------------7(------7--6--------2--------*|---2-------------------2--|
A---------0-----------0--0)----------------0-----------|-0-------------------0----|
E------------------------------------------------------|--------------------------|
 __________________________________________
					   |
E-----------------------------------0)~----||
B-0-1-------------------------------2(~----||
G-----2----5)-4-5--------4----------2)~----|| end
D----------7(------7--6----------2---------||
A-------0--0)---------------\-0------------||
E------------------------------------------||

-----------------------------------------------------------------------------------------

=======================
=TABLATURE EXPLANATION=
=======================

A.H. = Artificial Harmonic

pm..| = Palm mute

h = hammer on

p = pull off

/ = slide up

\ = slide down

~ = Vibrato

b() = Bend

x\ = Pick Slide

--------
--------
---12--- = Tremolo pick
----/---
----/---
----/---

---.---
--12--- = Staccato
-------
-------
-------

|     |
|     |
|*   *| = repeat from * to *
|*   *| 
|     |
Suggest correction
Give kudos to tab author, rate the tab!
1 2 3 4 5
comments
print report bad tab
1 comment total.
0 reply
Thag7 10 Jul 01, 2010 11:46 AM

Really hard to play, but beautiful lml

guest
You may want to rate the tab now too:
select rating
Wanna post a correction for this tab? Suggest correction