Oops, an error
Loading. Please wait.

Wings Of Destiny bass

version 1
version 1

Whole song

Interactive

79 views 3 this week
no commentswrite comment
1 2 3 4 5
3 more votes to show rating
add to favorites
×
Save as Personal and add changes to this tab that will be seen only by you. Learn more ›
×
You can save this tab as Personal to edit and correct it or add notes. All changes will be seen only by you. Learn more »
launch autoscroll
font size
0
reset
guitar tuner
edit
Autoscroll
slow
fast
+/-
esc
set tempo
stop
Author
Difficulty
Tabbed by: 6METAL6BASSIST6
E-mail: petergriffinav@gmail.com

Tuning: EADG

0:51

G|----------------------------------------------------------------|
D|----------------------------------------------------------------|
A|4-------------------------------4-------------------------------|
E|----------------------------------------------------------------|

G|----------------------------------------------------------------|
D|----------------------------------------------------------------|
A|4-------------------------------2-------------------------------|
E|----------------------------------------------------------------|

G|----------------------------------------------------------------|
D|----------------------------------------------------------------|
A|1-------------------------------0-------------------------------|
E|----------------2-----------------------------------------------|

G|----------------------------------------------------------------|
D|----------------------------------------------------------------|
A|5-------------------------------4---------------2---------------|
E|----------------------------------------------------------------|

G|----------------------------------------------------------------|
D|----------------------------------------------------------------|
A|0---------------------------------------------------------------|
E|------------------------4-------2-------------------------------|

G|--------------------------------|
D|--------------------------------|
A|--------------------------------|
E|4-------------------------------|

1:21

G|----------------------------------------------------------------|
D|----------------------------------------------------------------|
A|4---------------------------------------------------------------|
E|--------------------------------4-------------------------------|

G|-----------------------------------------------/8-----6---------|
D|--------------------------------------------6-6-------------6---|
A|0-------------------------------4-------------------------------|
E|----------------------------------------------------------------|

G|----------------------------------------------------------------|
D|----------------4-----------------------------------------------|
A|2-------------------------------7-------------------------------|
E|----------------------------------------------------------------|

G|----------------8-------5---------------------------------------|
D|--------6-------------------------------------------------------|
A|--------------------------------4-------------------------------|
E|4---------------------------------------------------------------|

1:42

G|----------------------------------------------------------------|
D|----------------------------------------------------------------|
A|4-------------------------------4-------------------------------|
E|----------------------------------------------------------------|

G|----------------------------------------------------------------|
D|----------------------------------------------------------------|
A|6-------------------------------2-------------------------------|
E|----------------------------------------------------------------|

G|----------------------------------------------------------------|
D|----------------------------------------------------------------|
A|2-------------------------------1---------------------------4---|
E|----------------------------------------------------------------|

G|----------------------------------------------------------------|
D|----------------------------------------------------------------|
A|6-------------------------------2-------------------------------|
E|----------------------------------------------------------------|

G|----------------------------------------------------------------|
D|----------------------------------------------------------------|
A|4-------------------------------6-------------------------------|
E|----------------------------------------------------------------|

G|--------------------------------|
D|5-------------------------------|
A|----------------6---------------|
E|--------------------------------|

2:12

G|----------------------------------------------------------------|
D|----------------------------------------------------------------|
A|4---------------2---------------0-------------------------------|
E|--------------------------------------------------------4-------|

G|------------------------------------------------------------5---|
D|------------------------------------------------------6---------|
A|------------------------------------------------6---------------|
E|2-------------------------------4-------------------------------|

G|----------------------------------------------------------------|
D|----------------------------------------------------------------|
A|4---------------2---------------0-------------------------------|
E|--------------------------------------------------------4-------|

G|----------------------------------------------------------------|
D|----------------------------------------------------------------|
A|----------------------------------------------------------------|
E|2-------------------------------4-------------------------------|

2:32

G|----------------------------------------------------------------|
D|----------------------------------------------------------------|
A|4---------------------------------------------------------------|
E|--------------------------------4-------------------------------|

G|----------------------------------------------------------------|
D|--------------------------------------------6-6---------6-------|
A|0-------------------------------4---------------6---------------|
E|----------------------------------------------------------------|

G|----------------------------------------------------------------|
D|----------------4-----------------------------------------------|
A|2-------------------------------7-------------------------------|
E|----------------------------------------------------------------|

G|----------------8---------------|
D|--------6-----------------------|
A|--------------------------------|
E|4-------------------------------|

2:52

G|----------------------------------------------------------------|
D|----------------------------------------------------------------|
A|4---------------------------------------------------------------|
E|--------------------------------4-------------------------------|

G|-----------------------------------------------/8-----6---------|
D|--------------------------------------------6-6-------------6---|
A|0-------------------------------4-------------------------------|
E|----------------------------------------------------------------|

G|----------------------------------------------------------------|
D|----------------------------------------------------------------|
A|2-------------------------------7-------------------------------|
E|----------------------------------------------------------------|

G|----------------8---------------|
D|--------6-----------------------|
A|--------------------------------|
E|4-------------------------------|

3:10

G|----------------------------------------------------------------|
D|----------------------------------------------------------------|
A|4-------------------------------1-------------------------------|
E|----------------------------------------------------------------|

G|----------------------------------------------------------------|
D|----------------------------------------------------------------|
A|2---------------------------------------------------------------|
E|--------------------------------2-------------------------------|

G|----------------------------------------------------------------|
D|----------------------------------------------------------------|
A|4-------------------------------1-------------------------------|
E|----------------------------------------------------------------|

G|----------------------------------------------------------------|
D|--------------------------------------------------------4-------|
A|2---------------------------------------------------------------|
E|--------------------------------2-------------------------------|

G|----------------------------------------------------------------|.
D|----------------------------------------------------------------|.
A|4-------------------------------1-------------------------------|.
E|----------------------------------------------------------------|.
                                                                   . x2
G|----------------------------------------------------------------|.
D|----------------------------------------------------------------|.
A|2---------------------------------------------------------------|.
E|--------------------------------2-------------------------------|.

G|----------------------------------------------------------------|
D|----------------------------------------------------------------|
A|4-------------------------------1-------------------------------|
E|----------------------------------------------------------------|

G|----------------------------------------------------------------|
D|--------------------------------------------------------4-------|
A|2---------------------------------------------------------------|
E|--------------------------------2-------------------------------|

G|----------------------------------------------------------------|.
D|----------------------------------------------------------------|.
A|4-------------------------------1-------------------------------|.
E|----------------------------------------------------------------|.
                                                                   . x2 to fadeout.
G|----------------------------------------------------------------|.
D|--------------------------------------------------------4-------|.
A|2---------------------------------------------------------------|.
E|--------------------------------2-------------------------------|.
Suggest correction
Creating personal tab
Creating personal tab
You can edit any tab online and save it as your Personal.

You can edit, replace or remove any tab part or add personal notes – all changes will be seen only by you.

Personal tabs can be accessed anytime from any device, even offline.
Learn more »
Give kudos to tab author, rate the tab!
1 2 3 4 5
comments
print report bad tab
guest
You may want to rate the tab now too:
select rating
Wanna post a correction for this tab? Suggest correction